999
dxfrw 0.6.3
  0
SECTION
  2
HEADER
  9
$ACADVER
  1
AC1021
  9
$DWGCODEPAGE
  3
ANSI_1252
  9
$INSBASE
 10
0
 20
0
 30
0
  9
$EXTMIN
 10
-62.1635894567
 20
-28.08310522131495
 30
0
  9
$EXTMAX
 10
64.20825854520001
 20
38.9171572875
 30
0
  9
$LIMMIN
 10
0
 20
0
  9
$LIMMAX
 10
420
 20
297
  9
$ORTHOMODE
 70
    0
  9
$REGENMODE
 70
    1
  9
$FILLMODE
 70
    1
  9
$QTEXTMODE
 70
    0
  9
$MIRRTEXT
 70
    1
  9
$LTSCALE
 40
1
  9
$ATTMODE
 70
    1
  9
$TEXTSIZE
 40
3.5
  9
$TRACEWID
 40
1
  9
$TEXTSTYLE
  7
Standard
  9
$CLAYER
  8
0
  9
$CELTYPE
  6
ByLayer
  9
$CECOLOR
 62
  256
  9
$CELTSCALE
 40
1
  9
$DISPSILH
 70
    0
  9
$DIMSCALE
 40
1
  9
$DIMASZ
 40
3.302
  9
$DIMEXO
 40
0
  9
$DIMDLI
 40
3.75
  9
$DIMRND
 40
0
  9
$DIMDLE
 40
0
  9
$DIMEXE
 40
1
  9
$DIMTP
 40
0
  9
$DIMTM
 40
0
  9
$DIMTXT
 40
3.5
  9
$DIMCEN
 40
2.5
  9
$DIMTSZ
 40
0
  9
$DIMTOL
 70
    0
  9
$DIMLIM
 70
    0
  9
$DIMTIH
 70
    1
  9
$DIMTOH
 70
    1
  9
$DIMSE1
 70
    0
  9
$DIMSE2
 70
    0
  9
$DIMTAD
 70
    1
  9
$DIMZIN
 70
    1
  9
$DIMBLK
  1

  9
$DIMASO
 70
    1
  9
$DIMSHO
 70
    1
  9
$DIMPOST
  1

  9
$DIMAPOST
  1

  9
$DIMALT
 70
    0
  9
$DIMALTD
 70
    3
  9
$DIMALTF
 40
0.0393700787
  9
$DIMLFAC
 40
1
  9
$DIMTOFL
 70
    1
  9
$DIMTVP
 40
0
  9
$DIMTIX
 70
    0
  9
$DIMSOXD
 70
    0
  9
$DIMSAH
 70
    0
  9
$DIMBLK1
  1

  9
$DIMBLK2
  1

  9
$DIMSTYLE
  2
ISO-25
  9
$DIMCLRD
 70
    0
  9
$DIMCLRE
 70
    0
  9
$DIMCLRT
 70
    0
  9
$DIMTFAC
 40
1
  9
$DIMGAP
 40
1.524
  9
$DIMJUST
 70
    0
  9
$DIMSD1
 70
    0
  9
$DIMSD2
 70
    0
  9
$DIMTOLJ
 70
    0
  9
$DIMTZIN
 70
    1
  9
$DIMALTZ
 70
    0
  9
$DIMALTTZ
 70
    0
  9
$DIMUPT
 70
    0
  9
$DIMDEC
 70
    2
  9
$DIMTDEC
 70
    2
  9
$DIMALTU
 70
    2
  9
$DIMALTTD
 70
    3
  9
$DIMTXSTY
  7
Standard
  9
$DIMAUNIT
 70
    0
  9
$DIMADEC
 70
    0
  9
$DIMALTRND
 40
0
  9
$DIMAZIN
 70
    0
  9
$DIMDSEP
 70
   44
  9
$DIMATFIT
 70
    3
  9
$DIMFRAC
 70
    0
  9
$DIMLDRBLK
  1

  9
$DIMLUNIT
 70
    2
  9
$DIMLWD
 70
   -2
  9
$DIMLWE
 70
   -2
  9
$DIMTMOVE
 70
    0
  9
$DIMFXL
 40
1
  9
$DIMFXLON
 70
    0
  9
$DIMJOGANG
 40
0.7854
  9
$DIMTFILL
 70
    0
  9
$DIMTFILLCLR
 70
    0
  9
$DIMARCSYM
 70
    0
  9
$DIMLTYPE
  6

  9
$DIMLTEX1
  6

  9
$DIMLTEX2
  6

  9
$LUNITS
 70
    2
  9
$LUPREC
 70
    2
  9
$SKETCHINC
 40
1
  9
$FILLETRAD
 40
10
  9
$AUNITS
 70
    0
  9
$AUPREC
 70
    2
  9
$MENU
  1
.
  9
$ELEVATION
 40
0
  9
$PELEVATION
 40
0
  9
$THICKNESS
 40
0
  9
$LIMCHECK
 70
    0
  9
$CHAMFERA
 40
0
  9
$CHAMFERB
 40
0
  9
$CHAMFERC
 40
0
  9
$CHAMFERD
 40
0
  9
$SKPOLY
 70
    0
  9
$USRTIMER
 70
    1
  9
$ANGBASE
 50
0
  9
$ANGDIR
 70
    0
  9
$PDMODE
 70
    0
  9
$PDSIZE
 40
-1
  9
$PLINEWID
 40
0
  9
$SPLFRAME
 70
    0
  9
$SPLINETYPE
 70
    6
  9
$SPLINESEGS
 70
    8
  9
$HANDSEED
  5
20000
  9
$SURFTAB1
 70
    6
  9
$SURFTAB2
 70
    6
  9
$SURFTYPE
 70
    6
  9
$SURFU
 70
    6
  9
$SURFV
 70
    6
  9
$UCSBASE
  2

  9
$UCSNAME
  2

  9
$UCSORG
 10
0
 20
0
 30
0
  9
$UCSXDIR
 10
1
 20
0
 30
0
  9
$UCSYDIR
 10
0
 20
1
 30
0
  9
$UCSORTHOREF
  2

  9
$UCSORTHOVIEW
 70
    0
  9
$UCSORGTOP
 10
0
 20
0
 30
0
  9
$UCSORGBOTTOM
 10
0
 20
0
 30
0
  9
$UCSORGLEFT
 10
0
 20
0
 30
0
  9
$UCSORGRIGHT
 10
0
 20
0
 30
0
  9
$UCSORGFRONT
 10
0
 20
0
 30
0
  9
$UCSORGBACK
 10
0
 20
0
 30
0
  9
$PUCSBASE
  2

  9
$PUCSNAME
  2

  9
$PUCSORG
 10
0
 20
0
 30
0
  9
$PUCSXDIR
 10
1
 20
0
 30
0
  9
$PUCSYDIR
 10
0
 20
1
 30
0
  9
$PUCSORTHOREF
  2

  9
$PUCSORTHOVIEW
 70
    0
  9
$PUCSORGTOP
 10
0
 20
0
 30
0
  9
$PUCSORGBOTTOM
 10
0
 20
0
 30
0
  9
$PUCSORGLEFT
 10
0
 20
0
 30
0
  9
$PUCSORGRIGHT
 10
0
 20
0
 30
0
  9
$PUCSORGFRONT
 10
0
 20
0
 30
0
  9
$PUCSORGBACK
 10
0
 20
0
 30
0
  9
$USERI1
 70
    0
  9
$USERI2
 70
    0
  9
$USERI3
 70
    0
  9
$USERI4
 70
    0
  9
$USERI5
 70
    0
  9
$USERR1
 40
0
  9
$USERR2
 40
0
  9
$USERR3
 40
0
  9
$USERR4
 40
0
  9
$USERR5
 40
0
  9
$WORLDVIEW
 70
    1
  9
$SHADEDGE
 70
    3
  9
$SHADEDIF
 70
   70
  9
$TILEMODE
 70
    1
  9
$MAXACTVP
 70
   64
  9
$PINSBASE
 10
0
 20
0
 30
0
  9
$PLIMCHECK
 70
    0
  9
$PEXTMIN
 10
1e+020
 20
1e+020
 30
1e+020
  9
$PEXTMAX
 10
-1e+020
 20
-1e+020
 30
-1e+020
  9
$GRIDMODE
 70
    0
  9
$SNAPSTYLE
 70
    0
  9
$PLIMMIN
 10
0
 20
0
  9
$PLIMMAX
 10
420
 20
297
  9
$UNITMODE
 70
    0
  9
$VISRETAIN
 70
    1
  9
$PLINEGEN
 70
    0
  9
$PSLTSCALE
 70
    1
  9
$TREEDEPTH
 70
 3020
  9
$CMLSTYLE
  2
Standard
  9
$CMLJUST
 70
    0
  9
$CMLSCALE
 40
20
  9
$PROXYGRAPHICS
 70
    1
  9
$MEASUREMENT
 70
    1
  9
$CELWEIGHT
370
   -1
  9
$ENDCAPS
280
    0
  9
$JOINSTYLE
280
    0
  9
$LWDISPLAY
290
    1
  9
$INSUNITS
 70
    4
  9
$HYPERLINKBASE
  1

  9
$STYLESHEET
  1

  9
$XEDIT
290
    1
  9
$CEPSNTYPE
380
    0
  9
$PSTYLEMODE
290
    1
  9
$EXTNAMES
290
    1
  9
$PSVPSCALE
 40
0
  9
$OLESTARTUP
290
    0
  9
$SORTENTS
280
  127
  9
$INDEXCTL
280
    0
  9
$HIDETEXT
280
    1
  9
$XCLIPFRAME
290
    0
  9
$HALOGAP
280
    0
  9
$OBSCOLOR
 70
  257
  9
$OBSLTYPE
280
    0
  9
$INTERSECTIONDISPLAY
280
    0
  9
$INTERSECTIONCOLOR
 70
  257
  9
$DIMASSOC
280
    1
  9
$PROJECTNAME
  1

  9
$CAMERADISPLAY
290
    0
  9
$LENSLENGTH
 40
50
  9
$CAMERAHEIGHT
 40
0
  9
$STEPSPERSEC
 40
2
  9
$STEPSIZE
 40
50
  9
$3DDWFPREC
 40
2
  9
$PSOLWIDTH
 40
5
  9
$PSOLHEIGHT
 40
80
  9
$LOFTANG1
 40
1.570796326794897
  9
$LOFTANG2
 40
1.570796326794897
  9
$LOFTMAG1
 40
0
  9
$LOFTMAG2
 40
0
  9
$LOFTPARAM
 70
    7
  9
$LOFTNORMALS
280
    1
  9
$LATITUDE
 40
1
  9
$LONGITUDE
 40
1
  9
$NORTHDIRECTION
 40
0
  9
$TIMEZONE
 70
-8000
  9
$LIGHTGLYPHDISPLAY
280
    1
  9
$TILEMODELIGHTSYNCH
280
    1
  9
$SOLIDHIST
280
    1
  9
$SHOWHIST
280
    1
  9
$DWFFRAME
280
    2
  9
$DGNFRAME
280
    0
  9
$REALWORLDSCALE
290
    1
  9
$INTERFERECOLOR
 62
    1
  9
$CSHADOW
280
    0
  9
$SHADOWPLANELOCATION
 40
0
  0
ENDSEC
  0
SECTION
  2
CLASSES
  0
ENDSEC
  0
SECTION
  2
TABLES
  0
TABLE
  2
VPORT
  5
8
330
0
100
AcDbSymbolTable
 70
    1
  0
VPORT
  5
31
330
2
100
AcDbSymbolTableRecord
100
AcDbViewportTableRecord
  2
*ACTIVE
 70
    0
 10
0
 20
0
 11
1
 21
1
 12
54.05949500627255
 22
23.40894020520836
 13
0
 23
0
 14
10
 24
10
 15
10
 25
10
 16
0
 26
0
 36
1
 17
0
 27
0
 37
0
 40
90.26756798555166
 41
1.955223880597015
 42
50
 43
0
 44
0
 50
0
 51
0
 71
    0
 72
  100
 73
    1
 74
    3
 75
    0
 76
    0
 77
    0
 78
    0
281
    0
 65
    1
110
0
120
0
130
0
111
1
121
0
131
0
112
0
122
1
132
0
 79
    0
146
0
348
10020
 60
    7
 61
    5
292
1
282
    1
141
0
142
0
 63
  250
421
3358443
  0
ENDTAB
  0
TABLE
  2
LTYPE
  5
5
330
0
100
AcDbSymbolTable
 70
    4
  0
LTYPE
  5
14
330
5
100
AcDbSymbolTableRecord
100
AcDbLinetypeTableRecord
  2
ByBlock
 70
    0
  3

 72
   65
 73
    0
 40
0
  0
LTYPE
  5
15
330
5
100
AcDbSymbolTableRecord
100
AcDbLinetypeTableRecord
  2
ByLayer
 70
    0
  3

 72
   65
 73
    0
 40
0
  0
LTYPE
  5
16
330
5
100
AcDbSymbolTableRecord
100
AcDbLinetypeTableRecord
  2
Continuous
 70
    0
  3
Solid line
 72
   65
 73
    0
 40
0
  0
LTYPE
  5
32
330
5
100
AcDbSymbolTableRecord
100
AcDbLinetypeTableRecord
  2
DOT
 70
    0
  3
Dot . . . . . . . . . . . . . . . . . . . . . .
 72
   65
 73
    2
 40
6.35
 49
0
 74
    0
 49
-6.35
 74
    0
  0
LTYPE
  5
33
330
5
100
AcDbSymbolTableRecord
100
AcDbLinetypeTableRecord
  2
DOTTINY
 70
    0
  3
Dot (.15x) .....................................
 72
   65
 73
    2
 40
0.9525
 49
0
 74
    0
 49
-0.9525
 74
    0
  0
LTYPE
  5
34
330
5
100
AcDbSymbolTableRecord
100
AcDbLinetypeTableRecord
  2
DOT2
 70
    0
  3
Dot (.5x) .....................................
 72
   65
 73
    2
 40
3.175
 49
0
 74
    0
 49
-3.175
 74
    0
  0
LTYPE
  5
35
330
5
100
AcDbSymbolTableRecord
100
AcDbLinetypeTableRecord
  2
DOTX2
 70
    0
  3
Dot (2x) .  .  .  .  .  .  .  .  .  .  .  .  .
 72
   65
 73
    2
 40
12.7
 49
0
 74
    0
 49
-12.7
 74
    0
  0
LTYPE
  5
36
330
5
100
AcDbSymbolTableRecord
100
AcDbLinetypeTableRecord
  2
DASHED
 70
    0
  3
Dashed _ _ _ _ _ _ _ _ _ _ _ _ _ _ _ _ _
 72
   65
 73
    2
 40
19.05
 49
12.7
 74
    0
 49
-6.35
 74
    0
  0
LTYPE
  5
37
330
5
100
AcDbSymbolTableRecord
100
AcDbLinetypeTableRecord
  2
DASHEDTINY
 70
    0
  3
Dashed (.15x) _ _ _ _ _ _ _ _ _ _ _ _ _ _ _ _ _
 72
   65
 73
    2
 40
2.8575
 49
1.905
 74
    0
 49
-0.9525
 74
    0
  0
LTYPE
  5
38
330
5
100
AcDbSymbolTableRecord
100
AcDbLinetypeTableRecord
  2
DASHED2
 70
    0
  3
Dashed (.5x) _ _ _ _ _ _ _ _ _ _ _ _ _ _ _ _ _
 72
   65
 73
    2
 40
9.524999999999999
 49
6.35
 74
    0
 49
-3.175
 74
    0
  0
LTYPE
  5
39
330
5
100
AcDbSymbolTableRecord
100
AcDbLinetypeTableRecord
  2
DASHEDX2
 70
    0
  3
Dashed (2x) ____  ____  ____  ____  ____  ___
 72
   65
 73
    2
 40
38.09999999999999
 49
25.4
 74
    0
 49
-12.7
 74
    0
  0
LTYPE
  5
3A
330
5
100
AcDbSymbolTableRecord
100
AcDbLinetypeTableRecord
  2
DASHDOT
 70
    0
  3
Dash dot __ . __ . __ . __ . __ . __ . __ . __
 72
   65
 73
    4
 40
25.4
 49
12.7
 74
    0
 49
-6.35
 74
    0
 49
0
 74
    0
 49
-6.35
 74
    0
  0
LTYPE
  5
3B
330
5
100
AcDbSymbolTableRecord
100
AcDbLinetypeTableRecord
  2
DASHDOTTINY
 70
    0
  3
Dash dot (.15x) _._._._._._._._._._._._._._._.
 72
   65
 73
    4
 40
3.81
 49
1.905
 74
    0
 49
-0.9525
 74
    0
 49
0
 74
    0
 49
-0.9525
 74
    0
  0
LTYPE
  5
3C
330
5
100
AcDbSymbolTableRecord
100
AcDbLinetypeTableRecord
  2
DASHDOT2
 70
    0
  3
Dash dot (.5x) _._._._._._._._._._._._._._._.
 72
   65
 73
    4
 40
12.7
 49
6.35
 74
    0
 49
-3.175
 74
    0
 49
0
 74
    0
 49
-3.175
 74
    0
  0
LTYPE
  5
3D
330
5
100
AcDbSymbolTableRecord
100
AcDbLinetypeTableRecord
  2
DASHDOTX2
 70
    0
  3
Dash dot (2x) ____  .  ____  .  ____  .  ___
 72
   65
 73
    4
 40
50.8
 49
25.4
 74
    0
 49
-12.7
 74
    0
 49
0
 74
    0
 49
-12.7
 74
    0
  0
LTYPE
  5
3E
330
5
100
AcDbSymbolTableRecord
100
AcDbLinetypeTableRecord
  2
DIVIDE
 70
    0
  3
Divide ____ . . ____ . . ____ . . ____ . . ____
 72
   65
 73
    6
 40
31.75
 49
12.7
 74
    0
 49
-6.35
 74
    0
 49
0
 74
    0
 49
-6.35
 74
    0
 49
0
 74
    0
 49
-6.35
 74
    0
  0
LTYPE
  5
3F
330
5
100
AcDbSymbolTableRecord
100
AcDbLinetypeTableRecord
  2
DIVIDETINY
 70
    0
  3
Divide (.15x) __..__..__..__..__..__..__..__.._
 72
   65
 73
    6
 40
4.7625
 49
1.905
 74
    0
 49
-0.9525
 74
    0
 49
0
 74
    0
 49
-0.9525
 74
    0
 49
0
 74
    0
 49
-0.9525
 74
    0
  0
LTYPE
  5
40
330
5
100
AcDbSymbolTableRecord
100
AcDbLinetypeTableRecord
  2
DIVIDE2
 70
    0
  3
Divide (.5x) __..__..__..__..__..__..__..__.._
 72
   65
 73
    6
 40
15.875
 49
6.35
 74
    0
 49
-3.175
 74
    0
 49
0
 74
    0
 49
-3.175
 74
    0
 49
0
 74
    0
 49
-3.175
 74
    0
  0
LTYPE
  5
41
330
5
100
AcDbSymbolTableRecord
100
AcDbLinetypeTableRecord
  2
DIVIDEX2
 70
    0
  3
Divide (2x) ________  .  .  ________  .  .  _
 72
   65
 73
    6
 40
63.5
 49
25.4
 74
    0
 49
-12.7
 74
    0
 49
0
 74
    0
 49
-12.7
 74
    0
 49
0
 74
    0
 49
-12.7
 74
    0
  0
LTYPE
  5
42
330
5
100
AcDbSymbolTableRecord
100
AcDbLinetypeTableRecord
  2
BORDER
 70
    0
  3
Border __ __ . __ __ . __ __ . __ __ . __ __ .
 72
   65
 73
    6
 40
44.45
 49
12.7
 74
    0
 49
-6.35
 74
    0
 49
12.7
 74
    0
 49
-6.35
 74
    0
 49
0
 74
    0
 49
-6.35
 74
    0
  0
LTYPE
  5
43
330
5
100
AcDbSymbolTableRecord
100
AcDbLinetypeTableRecord
  2
BORDERTINY
 70
    0
  3
Border (.15x) __.__.__.__.__.__.__.__.__.__.__.
 72
   65
 73
    6
 40
6.6675
 49
1.905
 74
    0
 49
-0.9525
 74
    0
 49
1.905
 74
    0
 49
-0.9525
 74
    0
 49
0
 74
    0
 49
-0.9525
 74
    0
  0
LTYPE
  5
44
330
5
100
AcDbSymbolTableRecord
100
AcDbLinetypeTableRecord
  2
BORDER2
 70
    0
  3
Border (.5x) __.__.__.__.__.__.__.__.__.__.__.
 72
   65
 73
    6
 40
22.225
 49
6.35
 74
    0
 49
-3.175
 74
    0
 49
6.35
 74
    0
 49
-3.175
 74
    0
 49
0
 74
    0
 49
-3.175
 74
    0
  0
LTYPE
  5
45
330
5
100
AcDbSymbolTableRecord
100
AcDbLinetypeTableRecord
  2
BORDERX2
 70
    0
  3
Border (2x) ____  ____  .  ____  ____  .  ___
 72
   65
 73
    6
 40
88.89999999999999
 49
25.4
 74
    0
 49
-12.7
 74
    0
 49
25.4
 74
    0
 49
-12.7
 74
    0
 49
0
 74
    0
 49
-12.7
 74
    0
  0
LTYPE
  5
46
330
5
100
AcDbSymbolTableRecord
100
AcDbLinetypeTableRecord
  2
CENTER
 70
    0
  3
Center ____ _ ____ _ ____ _ ____ _ ____ _ ____
 72
   65
 73
    4
 40
50.8
 49
31.75
 74
    0
 49
-6.35
 74
    0
 49
6.35
 74
    0
 49
-6.35
 74
    0
  0
LTYPE
  5
47
330
5
100
AcDbSymbolTableRecord
100
AcDbLinetypeTableRecord
  2
CENTERTINY
 70
    0
  3
Center (.15x) ___ _ ___ _ ___ _ ___ _ ___ _ ___
 72
   65
 73
    4
 40
7.62
 49
4.7625
 74
    0
 49
-0.9525
 74
    0
 49
0.9525
 74
    0
 49
-0.9525
 74
    0
  0
LTYPE
  5
48
330
5
100
AcDbSymbolTableRecord
100
AcDbLinetypeTableRecord
  2
CENTER2
 70
    0
  3
Center (.5x) ___ _ ___ _ ___ _ ___ _ ___ _ ___
 72
   65
 73
    4
 40
28.575
 49
19.05
 74
    0
 49
-3.175
 74
    0
 49
3.175
 74
    0
 49
-3.175
 74
    0
  0
LTYPE
  5
49
330
5
100
AcDbSymbolTableRecord
100
AcDbLinetypeTableRecord
  2
CENTERX2
 70
    0
  3
Center (2x) ________  __  ________  __  _____
 72
   65
 73
    4
 40
101.6
 49
63.5
 74
    0
 49
-12.7
 74
    0
 49
12.7
 74
    0
 49
-12.7
 74
    0
  0
ENDTAB
  0
TABLE
  2
LAYER
  5
2
330
0
100
AcDbSymbolTable
 70
    1
  0
LAYER
  5
10
330
2
100
AcDbSymbolTableRecord
100
AcDbLayerTableRecord
  2
0
 70
    0
 62
    7
  6
CONTINUOUS
370
   -3
390
F
  0
ENDTAB
  0
TABLE
  2
STYLE
  5
3
330
0
100
AcDbSymbolTable
 70
    3
  0
STYLE
  5
4A
330
2
100
AcDbSymbolTableRecord
100
AcDbTextStyleTableRecord
  2
Standard
 70
    0
 40
0
 41
1
 50
0
 71
    0
 42
1
  3
txt
  4

  0
ENDTAB
  0
TABLE
  2
VIEW
  5
6
330
0
100
AcDbSymbolTable
 70
    0
  0
ENDTAB
  0
TABLE
  2
UCS
  5
7
330
0
100
AcDbSymbolTable
 70
    0
  0
ENDTAB
  0
TABLE
  2
APPID
  5
9
330
0
100
AcDbSymbolTable
 70
    1
  0
APPID
  5
12
330
9
100
AcDbSymbolTableRecord
100
AcDbRegAppTableRecord
  2
ACAD
 70
    0
  0
APPID
  5
4B
330
9
100
AcDbSymbolTableRecord
100
AcDbRegAppTableRecord
  2
LibreCad
 70
    0
  0
ENDTAB
  0
TABLE
  2
DIMSTYLE
  5
A
330
0
100
AcDbSymbolTable
 70
    1
100
AcDbDimStyleTable
 71
    1
  0
DIMSTYLE
105
4C
330
A
100
AcDbSymbolTableRecord
100
AcDbDimStyleTableRecord
  2
Standard
 70
    0
 40
1
 41
3.302
 42
0
 43
0.38
 44
1
 45
0
 46
0
 47
0
 48
0
 49
1
140
3.5
141
0.09
142
0
143
25.4
144
1
145
0
146
1
147
1.524
148
0
 71
    0
 72
    0
 73
    1
 74
    1
 75
    0
 76
    0
 77
    0
 78
    1
 79
    0
170
    0
171
    2
172
    0
173
    0
174
    0
175
    0
176
    0
177
    0
178
    0
179
    0
271
    2
272
    4
273
    2
274
    2
275
    0
276
    0
277
    2
278
   44
279
    0
280
    0
281
    0
282
    0
283
    1
284
    0
285
    0
286
    0
288
    0
289
    3
340
Standard
341

371
   -2
372
   -2
  0
ENDTAB
  0
TABLE
  2
BLOCK_RECORD
  5
1
330
0
100
AcDbSymbolTable
 70
    2
  0
BLOCK_RECORD
  5
1F
330
1
100
AcDbSymbolTableRecord
100
AcDbBlockTableRecord
  2
*Model_Space
 70
    0
280
    1
281
    0
  0
BLOCK_RECORD
  5
1E
330
1
100
AcDbSymbolTableRecord
100
AcDbBlockTableRecord
  2
*Paper_Space
 70
    0
280
    1
281
    0
  0
ENDTAB
  0
ENDSEC
  0
SECTION
  2
BLOCKS
  0
BLOCK
  5
20
330
1F
100
AcDbEntity
  8
0
100
AcDbBlockBegin
  2
*Model_Space
 70
    0
 10
0
 20
0
 30
0
  3
*Model_Space
  1

  0
ENDBLK
  5
21
330
1F
100
AcDbEntity
  8
0
100
AcDbBlockEnd
  0
BLOCK
  5
1C
330
1B
100
AcDbEntity
  8
0
100
AcDbBlockBegin
  2
*Paper_Space
 70
    0
 10
0
 20
0
 30
0
  3
*Paper_Space
  1

  0
ENDBLK
  5
1D
330
1F
100
AcDbEntity
  8
0
100
AcDbBlockEnd
  0
ENDSEC
  0
SECTION
  2
ENTITIES
  0
LINE
  5
4D
100
AcDbEntity
  8
0
  6
CONTINUOUS
 62
    7
370
   25
100
AcDbLine
 10
-6.975916152
 20
37.8055552713
 11
7.0540697254
 21
37.8055552713
  0
ARC
  5
4E
100
AcDbEntity
  8
0
  6
CONTINUOUS
 62
    7
370
   25
100
AcDbCircle
 10
7.0540697254
 20
35.5099020439
 40
2.295653227329723
100
AcDbArc
 50
270
 51
90
  0
LINE
  5
4F
100
AcDbEntity
  8
0
  6
CONTINUOUS
 62
    7
370
   25
100
AcDbLine
 10
7.0540697254
 20
33.2142488166
 11
-6.975916152
 21
33.2142488166
  0
ARC
  5
50
100
AcDbEntity
  8
0
  6
CONTINUOUS
 62
    7
370
   25
100
AcDbCircle
 10
-6.975916152
 20
35.5099020439
 40
2.295653227329723
100
AcDbArc
 50
90
 51
270
  0
LINE
  5
51
100
AcDbEntity
  8
0
  6
CONTINUOUS
 62
    7
370
   25
100
AcDbLine
 10
56.8835757128
 20
-20.4463155367
 11
42.1745656753
 21
-24.099689783
  0
ARC
  5
52
100
AcDbEntity
  8
0
  6
CONTINUOUS
 62
    7
370
   25
100
AcDbCircle
 10
41.9855409994
 20
-23.3386492577
 40
0.7841638918365531
100
AcDbArc
 50
103.9486687872
 51
283.9486687872
  0
LINE
  5
53
100
AcDbEntity
  8
0
  6
CONTINUOUS
 62
    7
370
   25
100
AcDbLine
 10
41.7965163235
 20
-22.5776087324
 11
56.505526361
 21
-18.924234486
  0
ARC
  5
54
100
AcDbEntity
  8
0
  6
CONTINUOUS
 62
    7
370
   25
100
AcDbCircle
 10
56.6945510369
 20
-19.6852750114
 40
0.7841638918365444
100
AcDbArc
 50
283.9486687872
 51
103.9486687872
  0
LINE
  5
55
100
AcDbEntity
  8
0
  6
CONTINUOUS
 62
    7
370
   25
100
AcDbLine
 10
56.8835757128
 20
-17.4463155367
 11
42.1745656753
 21
-21.099689783
  0
ARC
  5
56
100
AcDbEntity
  8
0
  6
CONTINUOUS
 62
    7
370
   25
100
AcDbCircle
 10
41.9855409994
 20
-20.3386492577
 40
0.78416389183656
100
AcDbArc
 50
103.9486687872
 51
283.9486687872
  0
LINE
  5
57
100
AcDbEntity
  8
0
  6
CONTINUOUS
 62
    7
370
   25
100
AcDbLine
 10
41.7965163235
 20
-19.5776087324
 11
56.505526361
 21
-15.924234486
  0
ARC
  5
58
100
AcDbEntity
  8
0
  6
CONTINUOUS
 62
    7
370
   25
100
AcDbCircle
 10
56.6945510369
 20
-16.6852750114
 40
0.784163891836541
100
AcDbArc
 50
283.9486687872
 51
103.9486687872
  0
LINE
  5
59
100
AcDbEntity
  8
0
  6
CONTINUOUS
 62
    7
370
   25
100
AcDbLine
 10
56.8835757128
 20
-14.4463155367
 11
42.1745656753
 21
-18.099689783
  0
ARC
  5
5A
100
AcDbEntity
  8
0
  6
CONTINUOUS
 62
    7
370
   25
100
AcDbCircle
 10
41.9855409994
 20
-17.3386492577
 40
0.7841638918365325
100
AcDbArc
 50
103.9486687872
 51
283.9486687872
  0
LINE
  5
5B
100
AcDbEntity
  8
0
  6
CONTINUOUS
 62
    7
370
   25
100
AcDbLine
 10
41.7965163235
 20
-16.5776087324
 11
56.505526361
 21
-12.924234486
  0
ARC
  5
5C
100
AcDbEntity
  8
0
  6
CONTINUOUS
 62
    7
370
   25
100
AcDbCircle
 10
56.6945510369
 20
-13.6852750114
 40
0.7841638918365427
100
AcDbArc
 50
283.9486687872
 51
103.9486687872
  0
LINE
  5
5D
100
AcDbEntity
  8
0
  6
CONTINUOUS
 62
    7
370
   25
100
AcDbLine
 10
56.8835757128
 20
-11.4463155367
 11
42.1745656753
 21
-15.099689783
  0
ARC
  5
5E
100
AcDbEntity
  8
0
  6
CONTINUOUS
 62
    7
370
   25
100
AcDbCircle
 10
41.9855409994
 20
-14.3386492577
 40
0.7841638918365359
100
AcDbArc
 50
103.9486687872
 51
283.9486687872
  0
LINE
  5
5F
100
AcDbEntity
  8
0
  6
CONTINUOUS
 62
    7
370
   25
100
AcDbLine
 10
41.7965163235
 20
-13.5776087324
 11
56.505526361
 21
-9.924234486
  0
ARC
  5
60
100
AcDbEntity
  8
0
  6
CONTINUOUS
 62
    7
370
   25
100
AcDbCircle
 10
56.6945510369
 20
-10.6852750114
 40
0.7841638918365409
100
AcDbArc
 50
283.9486687872
 51
103.9486687872
  0
LINE
  5
61
100
AcDbEntity
  8
0
  6
CONTINUOUS
 62
    7
370
   25
100
AcDbLine
 10
56.8835757128
 20
-8.4463155367
 11
42.1745656753
 21
-12.099689783
  0
ARC
  5
62
100
AcDbEntity
  8
0
  6
CONTINUOUS
 62
    7
370
   25
100
AcDbCircle
 10
41.9855409994
 20
-11.3386492577
 40
0.7841638918365514
100
AcDbArc
 50
103.9486687872
 51
283.9486687872
  0
LINE
  5
63
100
AcDbEntity
  8
0
  6
CONTINUOUS
 62
    7
370
   25
100
AcDbLine
 10
41.7965163235
 20
-10.5776087324
 11
56.505526361
 21
-6.924234486
  0
ARC
  5
64
100
AcDbEntity
  8
0
  6
CONTINUOUS
 62
    7
370
   25
100
AcDbCircle
 10
56.6945510369
 20
-7.6852750114
 40
0.7841638918365507
100
AcDbArc
 50
283.9486687872
 51
103.9486687872
  0
SPLINE
  5
65
100
AcDbEntity
  8
0
  6
CONTINUOUS
 62
    7
370
   25
100
AcDbSpline
210
0
220
0
230
0
 70
    8
 71
    3
 72
   14
 73
   10
 74
    0
 42
1e-007
 43
1e-007
 40
0
 40
0
 40
0
 40
0
 40
0.0145422049608457
 40
0.0145422049608457
 40
0.0145422049608457
 40
0.0261035552308168
 40
0.0261035552308168
 40
0.0261035552308168
 40
0.0319200033321856
 40
0.0319200033321856
 40
0.0319200033321856
 40
0.0319200033321856
 10
1.1e-015
 20
32.57376522462381
 30
0
 10
4.847401653615246
 20
32.57376522462381
 30
0
 10
9.695990383101226
 20
32.40194802530237
 30
0
 10
14.53505284273696
 20
32.11773454353919
 30
0
 10
18.38288594690484
 20
31.89173910477368
 30
0
 10
22.22770141721129
 20
31.59655655683055
 30
0
 10
26.06286216078447
 20
31.21128313855691
 30
0
 10
27.9921696396071
 20
31.01746834513201
 30
0
 10
29.94993008610953
 20
30.94249746136198
 30
0
 10
31.83460912983359
 20
30.48667246847696
 30
0
  0
ARC
  5
66
100
AcDbEntity
  8
0
  6
CONTINUOUS
 62
    7
370
   25
100
AcDbCircle
 10
30.5862337106
 20
25.3250709151
 40
5.310421055143654
100
AcDbArc
 50
3.1173553314
 51
76.4036432767
  0
SPLINE
  5
67
100
AcDbEntity
  8
0
  6
CONTINUOUS
 62
    7
370
   25
100
AcDbSpline
210
0
220
0
230
0
 70
    8
 71
    3
 72
   17
 73
   13
 74
    0
 42
1e-007
 43
1e-007
 40
0
 40
0
 40
0
 40
0
 40
0.0093015778795196
 40
0.0093015778795196
 40
0.0093015778795196
 40
0.0223836390686741
 40
0.0223836390686741
 40
0.0223836390686741
 40
0.0420201123541749
 40
0.0420201123541749
 40
0.0420201123541749
 40
0.0462808012551958
 40
0.0462808012551958
 40
0.0462808012551958
 40
0.0462808012551958
 10
35.88879663635642
 20
25.61385838246943
 30
0
 10
36.18652141391178
 20
22.52765988197233
 30
0
 10
36.4534276199962
 20
19.43837016353654
 30
0
 10
36.69330124973223
 20
16.34713709736405
 30
0
 10
37.03065565116473
 20
11.9996768038982
 30
0
 10
37.3146783717065
 20
7.647712893673003
 30
0
 10
37.54237558863608
 20
3.293132205153084
 30
0
 10
37.88409929628941
 20
-3.242140725375946
 30
0
 10
38.10310987077983
 20
-9.786370594659127
 30
0
 10
38.13620964436433
 20
-16.33048793574238
 30
0
 10
38.14339369562261
 20
-17.75083826830498
 30
0
 10
38.1414638261376
 20
-19.17127237134363
 30
0
 10
38.12916367178598
 20
-20.59158761241024
 30
0
  0
ARC
  5
68
100
AcDbEntity
  8
0
  6
CONTINUOUS
 62
    7
370
   25
100
AcDbCircle
 10
29.771148677
 20
-19.9600819844
 40
8.381838343145967
100
AcDbArc
 50
284.2753477418
 51
355.6791189633
  0
SPLINE
  5
69
100
AcDbEntity
  8
0
  6
CONTINUOUS
 62
    7
370
   25
100
AcDbSpline
210
0
220
0
230
0
 70
    8
 71
    3
 72
   17
 73
   13
 74
    0
 42
1e-007
 43
1e-007
 40
0
 40
0
 40
0
 40
0
 40
0.00086428677904
 40
0.00086428677904
 40
0.00086428677904
 40
0.0134112385934406
 40
0.0134112385934406
 40
0.0134112385934406
 40
0.0259513630410632
 40
0.0259513630410632
 40
0.0259513630410632
 40
0.0322145554663504
 40
0.0322145554663504
 40
0.0322145554663504
 40
0.0322145554663504
 10
31.83795962707051
 20
-28.08310522128892
 30
0
 10
31.55955048961231
 20
-28.15718236279344
 30
0
 10
31.28082370542851
 20
-28.23007536000263
 30
0
 10
31.00180110172227
 20
-28.30180720324319
 30
0
 10
26.95722862412052
 20
-29.34159622063723
 30
0
 10
22.84676960336838
 20
-30.14182210318537
 30
0
 10
18.71559557997186
 20
-30.75266489448321
 30
0
 10
14.5855821722054
 20
-31.36333607507497
 30
0
 10
10.42414278189338
 20
-31.78870905292734
 30
0
 10
6.256275821651433
 20
-32.03122717773374
 30
0
 10
4.173313472332151
 20
-32.15242973237812
 30
0
 10
2.086485611724659
 20
-32.23075841545332
 30
0
 10
-1e-016
 20
-32.23075841545332
 30
0
  0
SPLINE
  5
6A
100
AcDbEntity
  8
0
  6
CONTINUOUS
 62
    7
370
   25
100
AcDbSpline
210
0
220
0
230
0
 70
    8
 71
    3
 72
   14
 73
   10
 74
    0
 42
1e-007
 43
1e-007
 40
0
 40
0
 40
0
 40
0
 40
0.006259456835174
 40
0.006259456835174
 40
0.006259456835174
 40
0.018792101907787
 40
0.018792101907787
 40
0.018792101907787
 40
0.0321978766996288
 40
0.0321978766996288
 40
0.0321978766996288
 40
0.0321978766996288
 10
0
 20
-32.23075841545332
 30
0
 10
-2.086485611724659
 20
-32.23075841545332
 30
0
 10
-4.173313472332151
 20
-32.15242973237811
 30
0
 10
-6.256275821651433
 20
-32.03122717773373
 30
0
 10
-10.42414278189338
 20
-31.78870905292733
 30
0
 10
-14.5855821722054
 20
-31.36333607507497
 30
0
 10
-18.71559557997186
 20
-30.75266489448321
 30
0
 10
-23.13130378588925
 20
-30.09975036926994
 30
0
 10
-27.52432261021543
 20
-29.23084736299454
 30
0
 10
-31.83795962707173
 20
-28.08310522128859
 30
0
  0
ARC
  5
6B
100
AcDbEntity
  8
0
  6
CONTINUOUS
 62
    7
370
   25
100
AcDbCircle
 10
-29.771148677
 20
-19.9600819844
 40
8.381838343145963
100
AcDbArc
 50
184.3208810367
 51
255.7246522582
  0
SPLINE
  5
6C
100
AcDbEntity
  8
0
  6
CONTINUOUS
 62
    7
370
   25
100
AcDbSpline
210
0
220
0
230
0
 70
    8
 71
    3
 72
   17
 73
   13
 74
    0
 42
1e-007
 43
1e-007
 40
0
 40
0
 40
0
 40
0
 40
0.0108128061341929
 40
0.0108128061341929
 40
0.0108128061341929
 40
0.0238946403418524
 40
0.0238946403418524
 40
0.0238946403418524
 40
0.0435220072467764
 40
0.0435220072467764
 40
0.0435220072467764
 40
0.0462784949871851
 40
0.0462784949871851
 40
0.0462784949871851
 40
0.0462784949871851
 10
-38.12916367178599
 20
-20.59158761240968
 30
0
 10
-38.16037603776904
 20
-16.98745405048808
 30
0
 10
-38.12548489482604
 20
-13.38243871221191
 30
0
 10
-38.04227835346394
 20
-9.779130563380546
 30
0
 10
-37.94161134811483
 20
-5.419686765394649
 30
0
 10
-37.77007678772136
 20
-1.061524639846166
 30
0
 10
-37.54237558863607
 20
3.293132205153079
 30
0
 10
-37.2007715394639
 20
9.826116734803353
 30
0
 10
-36.73556493855709
 20
16.35384349308421
 30
0
 10
-36.14541670497686
 20
22.86907988583795
 30
0
 10
-36.06252091272431
 20
23.78424941742068
 30
0
 10
-35.97703460790999
 20
24.69918847245554
 30
0
 10
-35.88879663635635
 20
25.61385838247041
 30
0
  0
ARC
  5
6D
100
AcDbEntity
  8
0
  6
CONTINUOUS
 62
    7
370
   25
100
AcDbCircle
 10
-30.5862337106
 20
25.3250709151
 40
5.310421055143655
100
AcDbArc
 50
103.5963567233
 51
176.8826446686
  0
SPLINE
  5
6E
100
AcDbEntity
  8
0
  6
CONTINUOUS
 62
    7
370
   25
100
AcDbSpline
210
0
220
0
230
0
 70
    8
 71
    3
 72
   14
 73
   10
 74
    0
 42
1e-007
 43
1e-007
 40
0
 40
0
 40
0
 40
0
 40
0.0101880043990429
 40
0.0101880043990429
 40
0.0101880043990429
 40
0.0203556044401978
 40
0.0203556044401978
 40
0.0203556044401978
 40
0.0319186915372409
 40
0.0319186915372409
 40
0.0319186915372409
 40
0.0319186915372409
 10
-31.83460912983356
 20
30.48667246847696
 30
0
 10
-28.53377737621837
 20
31.2850055404218
 30
0
 10
-25.0929713146931
 20
31.32792079118438
 30
0
 10
-21.70865136649731
 20
31.60935363873285
 30
0
 10
-18.33033922655074
 20
31.89028688972752
 30
0
 10
-14.94669271793052
 20
32.11330756746177
 30
0
 10
-11.56068189369211
 20
32.27715842820152
 30
0
 10
-7.710358561299389
 20
32.46347761762136
 30
0
 10
-3.854828738648945
 20
32.57376522462381
 30
0
 10
2.3e-015
 20
32.57376522462381
 30
0
  0
ARC
  5
6F
100
AcDbEntity
  8
0
  6
CONTINUOUS
 62
    7
370
   25
100
AcDbCircle
 10
-42.9322793755
 20
-12.7670642366
 40
2.990874427666792
100
AcDbArc
 50
256.059634434
 51
76.059634434
  0
LINE
  5
70
100
AcDbEntity
  8
0
  6
CONTINUOUS
 62
    7
370
   25
100
AcDbLine
 10
-43.6528165096
 20
-15.6698484312
 11
-54.2858337293
 21
-13.0304914413
  0
ARC
  5
71
100
AcDbEntity
  8
0
  6
CONTINUOUS
 62
    7
370
   25
100
AcDbCircle
 10
-53.5652965952
 20
-10.1277072467
 40
2.990874427666792
100
AcDbArc
 50
76.059634434
 51
256.059634434
  0
LINE
  5
72
100
AcDbEntity
  8
0
  6
CONTINUOUS
 62
    7
370
   25
100
AcDbLine
 10
-52.8447594611
 20
-7.2249230521
 11
-42.2117422415
 21
-9.864280041900001
  0
ARC
  5
73
100
AcDbEntity
  8
0
  6
CONTINUOUS
 62
    7
370
   25
100
AcDbCircle
 10
-42.9322793755
 20
-20.7670642366
 40
2.990874427666791
100
AcDbArc
 50
256.059634434
 51
76.059634434
  0
LINE
  5
74
100
AcDbEntity
  8
0
  6
CONTINUOUS
 62
    7
370
   25
100
AcDbLine
 10
-43.6528165096
 20
-23.6698484312
 11
-54.2858337293
 21
-21.0304914413
  0
ARC
  5
75
100
AcDbEntity
  8
0
  6
CONTINUOUS
 62
    7
370
   25
100
AcDbCircle
 10
-53.5652965952
 20
-18.1277072467
 40
2.990874427666796
100
AcDbArc
 50
76.059634434
 51
256.059634434
  0
LINE
  5
76
100
AcDbEntity
  8
0
  6
CONTINUOUS
 62
    7
370
   25
100
AcDbLine
 10
-52.8447594611
 20
-15.2249230521
 11
-42.2117422415
 21
-17.8642800419
  0
LINE
  5
77
100
AcDbEntity
  8
0
  6
CONTINUOUS
 62
    7
370
   25
100
AcDbLine
 10
-48.8369861313
 20
3.139848874
 11
-48.8369861313
 21
-1.2502278943
  0
ARC
  5
78
100
AcDbEntity
  8
0
  6
CONTINUOUS
 62
    7
370
   25
100
AcDbCircle
 10
-50.0869861313
 20
-1.2502278943
 40
1.25
100
AcDbArc
 50
270
 51
0
  0
LINE
  5
79
100
AcDbEntity
  8
0
  6
CONTINUOUS
 62
    7
370
   25
100
AcDbLine
 10
-50.0869861313
 20
-2.5002278943
 11
-54.9901927821
 21
-2.5002278943
  0
ARC
  5
7A
100
AcDbEntity
  8
0
  6
CONTINUOUS
 62
    7
370
   25
100
AcDbCircle
 10
-54.9901927821
 20
-1.2502278943
 40
1.25
100
AcDbArc
 50
180
 51
270
  0
LINE
  5
7B
100
AcDbEntity
  8
0
  6
CONTINUOUS
 62
    7
370
   25
100
AcDbLine
 10
-56.2401927821
 20
-1.2502278943
 11
-56.2401927821
 21
3.139848874
  0
ARC
  5
7C
100
AcDbEntity
  8
0
  6
CONTINUOUS
 62
    7
370
   25
100
AcDbCircle
 10
-56.3901927821
 20
3.139848874
 40
0.1500000000000004
100
AcDbArc
 50
360
 51
90
  0
LINE
  5
7D
100
AcDbEntity
  8
0
  6
CONTINUOUS
 62
    7
370
   25
100
AcDbLine
 10
-56.3901927821
 20
3.289848874
 11
-60.9135894567
 21
3.289848874
  0
ARC
  5
7E
100
AcDbEntity
  8
0
  6
CONTINUOUS
 62
    7
370
   25
100
AcDbCircle
 10
-60.9135894567
 20
4.539848874
 40
1.25
100
AcDbArc
 50
180
 51
270
  0
LINE
  5
7F
100
AcDbEntity
  8
0
  6
CONTINUOUS
 62
    7
370
   25
100
AcDbLine
 10
-62.1635894567
 20
4.539848874
 11
-62.1635894567
 21
9.709695337399999
  0
ARC
  5
80
100
AcDbEntity
  8
0
  6
CONTINUOUS
 62
    7
370
   25
100
AcDbCircle
 10
-60.9135894567
 20
9.709695337399999
 40
1.25
100
AcDbArc
 50
90
 51
180
  0
LINE
  5
81
100
AcDbEntity
  8
0
  6
CONTINUOUS
 62
    7
370
   25
100
AcDbLine
 10
-60.9135894567
 20
10.9596953374
 11
-56.3901927821
 21
10.9596953374
  0
ARC
  5
82
100
AcDbEntity
  8
0
  6
CONTINUOUS
 62
    7
370
   25
100
AcDbCircle
 10
-56.3901927821
 20
11.1096953374
 40
0.1500000000000004
100
AcDbArc
 50
270
 51
0
  0
LINE
  5
83
100
AcDbEntity
  8
0
  6
CONTINUOUS
 62
    7
370
   25
100
AcDbLine
 10
-56.2401927821
 20
11.1096953374
 11
-56.2401927821
 21
15.4997721057
  0
ARC
  5
84
100
AcDbEntity
  8
0
  6
CONTINUOUS
 62
    7
370
   25
100
AcDbCircle
 10
-54.9901927821
 20
15.4997721057
 40
1.25
100
AcDbArc
 50
90
 51
180
  0
LINE
  5
85
100
AcDbEntity
  8
0
  6
CONTINUOUS
 62
    7
370
   25
100
AcDbLine
 10
-54.9901927821
 20
16.7497721057
 11
-50.0869861313
 21
16.7497721057
  0
ARC
  5
86
100
AcDbEntity
  8
0
  6
CONTINUOUS
 62
    7
370
   25
100
AcDbCircle
 10
-50.0869861313
 20
15.4997721057
 40
1.25
100
AcDbArc
 50
0
 51
90
  0
LINE
  5
87
100
AcDbEntity
  8
0
  6
CONTINUOUS
 62
    7
370
   25
100
AcDbLine
 10
-48.8369861313
 20
15.4997721057
 11
-48.8369861313
 21
11.1096953374
  0
ARC
  5
88
100
AcDbEntity
  8
0
  6
CONTINUOUS
 62
    7
370
   25
100
AcDbCircle
 10
-48.6869861313
 20
11.1096953374
 40
0.1500000000000004
100
AcDbArc
 50
180
 51
270
  0
LINE
  5
89
100
AcDbEntity
  8
0
  6
CONTINUOUS
 62
    7
370
   25
100
AcDbLine
 10
-48.6869861313
 20
10.9596953374
 11
-44.1635894567
 21
10.9596953374
  0
ARC
  5
8A
100
AcDbEntity
  8
0
  6
CONTINUOUS
 62
    7
370
   25
100
AcDbCircle
 10
-44.1635894567
 20
9.709695337399999
 40
1.250000000000007
100
AcDbArc
 50
0
 51
90
  0
LINE
  5
8B
100
AcDbEntity
  8
0
  6
CONTINUOUS
 62
    7
370
   25
100
AcDbLine
 10
-42.9135894567
 20
9.709695337399999
 11
-42.9135894567
 21
4.539848874
  0
ARC
  5
8C
100
AcDbEntity
  8
0
  6
CONTINUOUS
 62
    7
370
   25
100
AcDbCircle
 10
-44.1635894567
 20
4.539848874
 40
1.250000000000007
100
AcDbArc
 50
270
 51
0
  0
LINE
  5
8D
100
AcDbEntity
  8
0
  6
CONTINUOUS
 62
    7
370
   25
100
AcDbLine
 10
-44.1635894567
 20
3.289848874
 11
-48.6869861313
 21
3.289848874
  0
ARC
  5
8E
100
AcDbEntity
  8
0
  6
CONTINUOUS
 62
    7
370
   25
100
AcDbCircle
 10
-48.6869861313
 20
3.139848874
 40
0.1499999999999995
100
AcDbArc
 50
90
 51
180
  0
CIRCLE
  5
8F
100
AcDbEntity
  8
0
  6
CONTINUOUS
 62
    7
370
   25
100
AcDbCircle
 10
59.0832585452
 20
9.349188846500001
 40
5.125000000000014
  0
CIRCLE
  5
90
100
AcDbEntity
  8
0
  6
CONTINUOUS
 62
    7
370
   25
100
AcDbCircle
 10
46.0832585452
 20
4.8491888465
 40
5.125
  0
SPLINE
  5
91
100
AcDbEntity
  8
0
  6
CONTINUOUS
 62
    7
370
   25
100
AcDbSpline
210
0
220
0
230
0
 70
    8
 71
    3
 72
   29
 73
   25
 74
    0
 42
1e-007
 43
1e-007
 40
0
 40
0
 40
0
 40
0
 40
0.0043697424477089
 40
0.0043697424477089
 40
0.0043697424477089
 40
0.008782146444821899
 40
0.008782146444821899
 40
0.008782146444821899
 40
0.0265649488776334
 40
0.0265649488776334
 40
0.0265649488776334
 40
0.0299454322254543
 40
0.0299454322254543
 40
0.0299454322254543
 40
0.0327513743843986
 40
0.0327513743843986
 40
0.0327513743843986
 40
0.0336171508120159
 40
0.0336171508120159
 40
0.0336171508120159
 40
0.0345014183731257
 40
0.0345014183731257
 40
0.0345014183731257
 40
0.0352315781876219
 40
0.0352315781876219
 40
0.0352315781876219
 40
0.0352315781876219
 10
-31.77352171344023
 20
38.91715728759712
 30
0
 10
-33.23010252860414
 20
38.9172036878714
 30
0
 10
-34.70377194870925
 20
38.66187717968639
 30
0
 10
-36.08286145426791
 20
38.19311305039056
 30
0
 10
-37.4876122673704
 20
37.71562642669616
 30
0
 10
-38.82380572885461
 20
37.04888616032363
 30
0
 10
-40.14593830643365
 20
36.37562263834774
 30
0
 10
-45.44627471985434
 20
33.67655658258875
 30
0
 10
-51.05887149104079
 20
31.42736356204658
 30
0
 10
-56.86727984265831
 20
30.14638109157964
 30
0
 10
-57.9817188008275
 20
29.90060347344392
 30
0
 10
-59.10410779537292
 20
29.68722959737293
 30
0
 10
-60.23243331871267
 20
29.51616720395523
 30
0
 10
-61.16841484057191
 20
29.37426556651812
 30
0
 10
-62.13495409841029
 20
29.29897337524975
 30
0
 10
-63.01598395032448
 20
28.95258647595166
 30
0
 10
-63.28958597643893
 20
28.84501672986241
 30
0
 10
-63.55699962462312
 20
28.70723945812599
 30
0
 10
-63.78662097395105
 20
28.5236547231929
 30
0
 10
-64.01926515941295
 20
28.33765319830528
 30
0
 10
-64.21037751570657
 20
28.09416654714843
 30
0
 10
-64.35363137375163
 20
27.83301866481937
 30
0
 10
-64.47346965916991
 20
27.61455673376905
 30
0
 10
-64.56787697819682
 20
27.38208038146396
 30
0
 10
-64.65082701199738
 20
27.14712055114671
 30
0
  0
SPLINE
  5
92
100
AcDbEntity
  8
0
  6
CONTINUOUS
 62
    7
370
   25
100
AcDbSpline
210
0
220
0
230
0
 70
    8
 71
    3
 72
   26
 73
   22
 74
    0
 42
1e-007
 43
1e-007
 40
0
 40
0
 40
0
 40
0
 40
0.0154697991501169
 40
0.0154697991501169
 40
0.0154697991501169
 40
0.0299123170904968
 40
0.0299123170904968
 40
0.0299123170904968
 40
0.0443767563914758
 40
0.0443767563914758
 40
0.0443767563914758
 40
0.0478451749231223
 40
0.0478451749231223
 40
0.0478451749231223
 40
0.0516708422236063
 40
0.0516708422236063
 40
0.0516708422236063
 40
0.0550340312434023
 40
0.0550340312434023
 40
0.0550340312434023
 40
0.0579555331128
 40
0.0579555331128
 40
0.0579555331128
 40
0.0579555331128
 10
-64.65082701199738
 20
27.14712055114671
 30
0
 10
-65.6346250745579
 20
22.08523730373464
 30
0
 10
-66.27137861141632
 20
16.95755178238876
 30
0
 10
-66.8218164873005
 20
11.83041429806859
 30
0
 10
-67.33588589334279
 20
7.042036468821437
 30
0
 10
-67.7462904596276
 20
2.241661729138243
 30
0
 10
-68.06530550316688
 20
-2.563653972441622
 30
0
 10
-68.38475131987094
 20
-7.375458399536083
 30
0
 10
-68.71213166086594
 20
-12.19793407432353
 30
0
 10
-68.63335179092383
 20
-17.0196869927659
 30
0
 10
-68.61458756575021
 20
-18.16815877317933
 30
0
 10
-68.51080297045144
 20
-19.34361615767669
 30
0
 10
-68.13655672842413
 20
-20.42956241642101
 30
0
 10
-67.72446994752531
 20
-21.62531015612019
 30
0
 10
-67.0454467835108
 20
-22.74454658475236
 30
0
 10
-66.22522622519372
 20
-23.7072855980375
 30
0
 10
-65.5005809320941
 20
-24.55784254566129
 30
0
 10
-64.6423446982425
 20
-25.31150800691646
 30
0
 10
-63.69981723064561
 20
-25.91167456278902
 30
0
 10
-62.88016760696599
 20
-26.43359706221524
 30
0
 10
-61.97776932625963
 20
-26.84649885460271
 30
0
 10
-61.042636347667
 20
-27.11061040935548
 30
0
  0
SPLINE
  5
93
100
AcDbEntity
  8
0
  6
CONTINUOUS
 62
    7
370
   25
100
AcDbSpline
210
0
220
0
230
0
 70
    8
 71
    3
 72
   17
 73
   13
 74
    0
 42
1e-007
 43
1e-007
 40
0
 40
0
 40
0
 40
0
 40
0.0225223928271768
 40
0.0225223928271768
 40
0.0225223928271768
 40
0.0340822918694183
 40
0.0340822918694183
 40
0.0340822918694183
 40
0.0569177004493324
 40
0.0569177004493324
 40
0.0569177004493324
 40
0.0626159837505882
 40
0.0626159837505882
 40
0.0626159837505882
 40
0.0626159837505882
 10
-61.04264523761061
 20
-27.11064188574982
 30
0
 10
-53.86336657550356
 20
-29.30608665688632
 30
0
 10
-46.43201946213399
 20
-30.84343665243715
 30
0
 10
-39.55047608029412
 20
-33.84449988655135
 30
0
 10
-36.0418160051078
 20
-35.37463784665394
 30
0
 10
-32.22866992272243
 20
-36.21793566119889
 30
0
 10
-28.43501097865719
 20
-36.72800380984881
 30
0
 10
-20.89373197214132
 20
-37.74195004961915
 30
0
 10
-13.30264723927944
 20
-38.46212077697673
 30
0
 10
-5.700272733062784
 20
-38.78286662416492
 30
0
 10
-3.801341431371861
 20
-38.86298295211154
 30
0
 10
-1.900613135502892
 20
-38.9170568302543
 30
0
 10
7.4748382484e-006
 20
-38.9171572877229
 30
0
  0
SPLINE
  5
94
100
AcDbEntity
  8
0
  6
CONTINUOUS
 62
    7
370
   25
100
AcDbSpline
210
0
220
0
230
0
 70
    8
 71
    3
 72
   17
 73
   13
 74
    0
 42
1e-007
 43
1e-007
 40
0
 40
0
 40
0
 40
0
 40
0.022633238852002
 40
0.022633238852002
 40
0.022633238852002
 40
0.0340576251324762
 40
0.0340576251324762
 40
0.0340576251324762
 40
0.0569112908019571
 40
0.0569112908019571
 40
0.0569112908019571
 40
0.06261952118289379
 40
0.06261952118289379
 40
0.06261952118289379
 40
0.06261952118289379
 10
7.474838205e-006
 20
-38.91715728693155
 30
0
 10
7.544420414903477
 20
-38.91675732128136
 30
0
 10
15.08795136450158
 20
-38.28754153495377
 30
0
 10
22.58552261164185
 20
-37.44814165155349
 30
0
 10
26.37259823466699
 20
-37.02415490549784
 30
0
 10
30.1825990870178
 20
-36.66561927173631
 30
0
 10
33.90628786688006
 20
-35.85577459152287
 30
0
 10
41.33653380409822
 20
-34.23981109385477
 30
0
 10
48.28783260344216
 20
-30.89462656184687
 30
0
 10
55.5822277606734
 20
-28.74714152033806
 30
0
 10
57.4050021488468
 20
-28.21051296536222
 30
0
 10
59.22558297823298
 20
-27.66630492990117
 30
0
 10
61.04264523839227
 20
-27.11064188551078
 30
0
  0
SPLINE
  5
95
100
AcDbEntity
  8
0
  6
CONTINUOUS
 62
    7
370
   25
100
AcDbSpline
210
0
220
0
230
0
 70
    8
 71
    3
 72
   26
 73
   22
 74
    0
 42
1e-007
 43
1e-007
 40
0
 40
0
 40
0
 40
0
 40
0.0035041828950167
 40
0.0035041828950167
 40
0.0035041828950167
 40
0.0062468166681749
 40
0.0062468166681749
 40
0.0062468166681749
 40
0.010047601702885
 40
0.010047601702885
 40
0.010047601702885
 40
0.0134934615265141
 40
0.0134934615265141
 40
0.0134934615265141
 40
0.0278638236394365
 40
0.0278638236394365
 40
0.0278638236394365
 40
0.0422124069690089
 40
0.0422124069690089
 40
0.0422124069690089
 40
0.0575815900374285
 40
0.0575815900374285
 40
0.0575815900374285
 40
0.0575815900374285
 10
61.04263634845343
 20
-27.11061040913335
 30
0
 10
62.1667243397
 20
-26.79313189662424
 30
0
 10
63.24426454395812
 20
-26.25804619592807
 30
0
 10
64.19376353562302
 20
-25.57773885156298
 30
0
 10
64.94200209237994
 20
-25.04163276828394
 30
0
 10
65.62828411741306
 20
-24.40795013273189
 30
0
 10
66.22522622523823
 20
-23.70728559798526
 30
0
 10
67.04544678353975
 20
-22.74454658470683
 30
0
 10
67.72446994754053
 20
-21.6253101560857
 30
0
 10
68.13655672843142
 20
-20.42956241639988
 30
0
 10
68.51080297045475
 20
-19.3436161576583
 30
0
 10
68.61458756575084
 20
-18.16815877316506
 30
0
 10
68.63335179092401
 20
-17.01968699275551
 30
0
 10
68.71213166086488
 20
-12.19793407429494
 30
0
 10
68.38475131986878
 20
-7.375458399489369
 30
0
 10
68.06530550316261
 20
-2.563653972376825
 30
0
 10
67.74629045962122
 20
2.241661729221147
 30
0
 10
67.33588589333388
 20
7.042036468922427
 30
0
 10
66.82181648728778
 20
11.83041429818748
 30
0
 10
66.27137861140589
 20
16.95755178246763
 30
0
 10
65.63462507455418
 20
22.08523730377408
 30
0
 10
64.65082701199756
 20
27.14712055114612
 30
0
  0
SPLINE
  5
96
100
AcDbEntity
  8
0
  6
CONTINUOUS
 62
    7
370
   25
100
AcDbSpline
210
0
220
0
230
0
 70
    8
 71
    3
 72
   29
 73
   25
 74
    0
 42
1e-007
 43
1e-007
 40
0
 40
0
 40
0
 40
0
 40
0.0007475168691994
 40
0.0007475168691994
 40
0.0007475168691994
 40
0.001652804870103
 40
0.001652804870103
 40
0.001652804870103
 40
0.0025391621739988
 40
0.0025391621739988
 40
0.0025391621739988
 40
0.0054118060201415
 40
0.0054118060201415
 40
0.0054118060201415
 40
0.0088726488087506
 40
0.0088726488087506
 40
0.0088726488087506
 40
0.027078176607172
 40
0.027078176607172
 40
0.027078176607172
 40
0.0315954704325305
 40
0.0315954704325305
 40
0.0315954704325305
 40
0.0360690932485838
 40
0.0360690932485838
 40
0.0360690932485838
 40
0.0360690932485838
 10
64.65082701199755
 20
27.14712055114612
 30
0
 10
64.56787697819648
 20
27.38208038146452
 30
0
 10
64.47346965916925
 20
27.61455673377088
 30
0
 10
64.3536313737501
 20
27.83301866482214
 30
0
 10
64.2103775157061
 20
28.09416654714858
 30
0
 10
64.01926515941454
 20
28.33765319830304
 30
0
 10
63.78662097395534
 20
28.52365472318953
 30
0
 10
63.55699962462996
 20
28.70723945812159
 30
0
 10
63.28958597644864
 20
28.84501672985762
 30
0
 10
63.015983950337
 20
28.95258647594678
 30
0
 10
62.13495409841782
 20
29.29897337525007
 30
0
 10
61.16841484057203
 20
29.37426556651799
 30
0
 10
60.23243331870633
 20
29.51616720395619
 30
0
 10
59.1041077953668
 20
29.68722959737401
 30
0
 10
57.98171880082162
 20
29.90060347344513
 30
0
 10
56.86727984265265
 20
30.14638109158091
 30
0
 10
51.05887149103631
 20
31.42736356204813
 30
0
 10
45.44627471985131
 20
33.67655658259064
 30
0
 10
40.14593830643146
 20
36.37562263834887
 30
0
 10
38.82380572885262
 20
37.04888616032459
 30
0
 10
37.48761226736862
 20
37.71562642669698
 30
0
 10
36.08286145426631
 20
38.19311305039113
 30
0
 10
34.70377054657209
 20
38.66187765628444
 30
0
 10
33.23009950446198
 20
38.91720368777511
 30
0
 10
31.77351720837631
 20
38.91715728745361
 30
0
  0
LINE
  5
97
100
AcDbEntity
  8
0
  6
CONTINUOUS
 62
    7
370
   25
100
AcDbLine
 10
31.7735172084
 20
38.9171572875
 11
-31.7735217134
 21
38.9171572875
  0
SPLINE
  5
98
100
AcDbEntity
  8
0
  6
CONTINUOUS
 62
    7
370
   25
100
AcDbSpline
210
0
220
0
230
0
 70
    8
 71
    3
 72
    9
 73
    5
 74
    0
 42
1e-007
 43
1e-007
 40
0
 40
0
 40
0
 40
0
 40
0.4999999999999909
 40
0.9999985727091567
 40
0.9999985727091567
 40
0.9999985727091567
 40
0.9999985727091567
 10
56.70361592452351
 20
25.51204632248295
 30
0
 10
56.76719765529274
 20
25.51204632248295
 30
0
 10
56.8943611168312
 20
25.51204632248295
 30
0
 10
57.02152457836966
 20
25.51204632248295
 30
0
 10
57.0851063091389
 20
25.51204632248295
 30
0
  0
SPLINE
  5
99
100
AcDbEntity
  8
0
  6
CONTINUOUS
 62
    7
370
   25
100
AcDbSpline
210
0
220
0
230
0
 70
    8
 71
    3
 72
    9
 73
    5
 74
    0
 42
1e-007
 43
1e-007
 40
0
 40
0
 40
0
 40
0
 40
0.4999999999999977
 40
0.9999990089338864
 40
0.9999990089338864
 40
0.9999990089338864
 40
0.9999990089338864
 10
56.48061912965171
 20
26.01655353402141
 30
0
 10
56.51778526213035
 20
25.932468998765
 30
0
 10
56.59211752708761
 20
25.76429992825218
 30
0
 10
56.66644979204488
 20
25.59613085773936
 30
0
 10
56.70361592452351
 20
25.51204632248295
 30
0
  0
SPLINE
  5
9A
100
AcDbEntity
  8
0
  6
CONTINUOUS
 62
    7
370
   25
100
AcDbSpline
210
0
220
0
230
0
 70
    8
 71
    3
 72
   10
 73
    6
 74
    0
 42
1e-007
 43
1e-007
 40
0
 40
0
 40
0
 40
0
 40
0.2493270414901504
 40
0.4974972072252289
 40
1
 40
1
 40
1
 40
1
 10
56.03278259119018
 20
26.48512324555987
 30
0
 10
56.09417202609535
 20
26.48409680396621
 30
0
 10
56.21666604935061
 20
26.48204868346082
 30
0
 10
56.36507726454386
 20
26.27902483486231
 30
0
 10
56.43428874874578
 20
26.12180019360653
 30
0
 10
56.48061912965171
 20
26.01655353402141
 30
0
  0
SPLINE
  5
9B
100
AcDbEntity
  8
0
  6
CONTINUOUS
 62
    7
370
   25
100
AcDbSpline
210
0
220
0
230
0
 70
    8
 71
    3
 72
    9
 73
    5
 74
    0
 42
1e-007
 43
1e-007
 40
0
 40
0
 40
0
 40
0
 40
0.5
 40
1
 40
1
 40
1
 40
1
 10
55.96459348862608
 20
26.48512324555987
 30
0
 10
55.97595833905343
 20
26.48512324555987
 30
0
 10
55.99868803990813
 20
26.48512324555987
 30
0
 10
56.02141774076283
 20
26.48512324555987
 30
0
 10
56.03278259119018
 20
26.48512324555987
 30
0
  0
SPLINE
  5
9C
100
AcDbEntity
  8
0
  6
CONTINUOUS
 62
    7
370
   25
100
AcDbSpline
210
0
220
0
230
0
 70
    8
 71
    3
 72
    9
 73
    5
 74
    0
 42
1e-007
 43
1e-007
 40
0
 40
0
 40
0
 40
0
 40
0.5000000000000018
 40
0.9999994861660053
 40
0.9999994861660053
 40
0.9999994861660053
 40
0.9999994861660053
 10
55.96459348862608
 20
25.51204632248295
 30
0
 10
55.96459348862609
 20
25.67422580966243
 30
0
 10
55.96459348862608
 20
25.99858478402141
 30
0
 10
55.96459348862607
 20
26.32294375838039
 30
0
 10
55.96459348862608
 20
26.48512324555987
 30
0
  0
SPLINE
  5
9D
100
AcDbEntity
  8
0
  6
CONTINUOUS
 62
    7
370
   25
100
AcDbSpline
210
0
220
0
230
0
 70
    8
 71
    3
 72
    9
 73
    5
 74
    0
 42
1e-007
 43
1e-007
 40
0
 40
0
 40
0
 40
0
 40
0.5000000000000108
 40
0.9999984584980131
 40
0.9999984584980131
 40
0.9999984584980131
 40
0.9999984584980131
 10
55.64023451426709
 20
25.51204632248295
 30
0
 10
55.69429434332692
 20
25.51204632248295
 30
0
 10
55.80241400144658
 20
25.51204632248294
 30
0
 10
55.91053365956625
 20
25.51204632248295
 30
0
 10
55.96459348862608
 20
25.51204632248295
 30
0
  0
SPLINE
  5
9E
100
AcDbEntity
  8
0
  6
CONTINUOUS
 62
    7
370
   25
100
AcDbSpline
210
0
220
0
230
0
 70
    8
 71
    3
 72
    9
 73
    5
 74
    0
 42
1e-007
 43
1e-007
 40
0
 40
0
 40
0
 40
0
 40
0.4999999999999977
 40
0.9999997826086957
 40
0.9999997826086957
 40
0.9999997826086957
 40
0.9999997826086957
 10
55.6402345142671
 20
27.81204632248295
 30
0
 10
55.64023451426711
 20
27.42871298914962
 30
0
 10
55.64023451426709
 20
26.66204632248295
 30
0
 10
55.64023451426711
 20
25.89537965581628
 30
0
 10
55.64023451426709
 20
25.51204632248295
 30
0
  0
SPLINE
  5
9F
100
AcDbEntity
  8
0
  6
CONTINUOUS
 62
    7
370
   25
100
AcDbSpline
210
0
220
0
230
0
 70
    8
 71
    3
 72
    9
 73
    5
 74
    0
 42
1e-007
 43
1e-007
 40
0
 40
0
 40
0
 40
0
 40
0.4999999999999999
 40
0.9999992745872959
 40
0.9999992745872959
 40
0.9999992745872959
 40
0.9999992745872959
 10
56.32949733477993
 20
27.81204632248295
 30
0
 10
56.2146201980278
 20
27.81204632248295
 30
0
 10
55.98486592452352
 20
27.81204632248294
 30
0
 10
55.75511165101923
 20
27.81204632248295
 30
0
 10
55.6402345142671
 20
27.81204632248295
 30
0
  0
SPLINE
  5
A0
100
AcDbEntity
  8
0
  6
CONTINUOUS
 62
    7
370
   25
100
AcDbSpline
210
0
220
0
230
0
 70
    8
 71
    3
 72
   10
 73
    6
 74
    0
 42
1e-007
 43
1e-007
 40
0
 40
0
 40
0
 40
0
 40
0.4402368661907747
 40
0.7168579341869553
 40
1
 40
1
 40
1
 40
1
 10
56.96715759119019
 20
27.17484680325218
 30
0
 10
56.95363688722638
 20
27.33418617926841
 30
0
 10
56.93162050319177
 20
27.59364581270159
 30
0
 10
56.62447469251726
 20
27.81517595060768
 30
0
 10
56.42858380200691
 20
27.81309760247607
 30
0
 10
56.32949733477993
 20
27.81204632248295
 30
0
  0
SPLINE
  5
A1
100
AcDbEntity
  8
0
  6
CONTINUOUS
 62
    7
370
   25
100
AcDbSpline
210
0
220
0
230
0
 70
    8
 71
    3
 72
    9
 73
    5
 74
    0
 42
1e-007
 43
1e-007
 40
0
 40
0
 40
0
 40
0
 40
0.4377688707566481
 40
0.9999992671408426
 40
0.9999992671408426
 40
0.9999992671408426
 40
0.9999992671408426
 10
56.54558307195942
 20
26.54225465581628
 30
0
 10
56.66154841620434
 20
26.59432268267743
 30
0
 10
56.92644926227062
 20
26.71326221981525
 30
0
 10
56.95250707673708
 20
27.00872719602558
 30
0
 10
56.96715759119019
 20
27.17484680325218
 30
0
  0
SPLINE
  5
A2
100
AcDbEntity
  8
0
  6
CONTINUOUS
 62
    7
370
   25
100
AcDbSpline
210
0
220
0
230
0
 70
    8
 71
    3
 72
   11
 73
    7
 74
    0
 42
1e-007
 43
1e-007
 40
0
 40
0
 40
0
 40
0
 40
0.2202440937889769
 40
0.4404710245369405
 40
0.6605652491017232
 40
0.9999992158332373
 40
0.9999992158332373
 40
0.9999992158332373
 40
0.9999992158332373
 10
56.88883227067736
 20
25.96725465581628
 30
0
 10
56.86995349355455
 20
26.0131612482498
 30
0
 10
56.83219741048221
 20
26.10497085573724
 30
0
 10
56.77026955677
 20
26.2400520104089
 30
0
 10
56.68921849696625
 20
26.39730528294097
 30
0
 10
56.59981757917886
 20
26.48752402227455
 30
0
 10
56.54558307195943
 20
26.54225465581629
 30
0
  0
SPLINE
  5
A3
100
AcDbEntity
  8
0
  6
CONTINUOUS
 62
    7
370
   25
100
AcDbSpline
210
0
220
0
230
0
 70
    8
 71
    3
 72
    9
 73
    5
 74
    0
 42
1e-007
 43
1e-007
 40
0
 40
0
 40
0
 40
0
 40
0.500000000000006
 40
0.9999922836427113
 40
0.9999922836427113
 40
0.9999922836427113
 40
0.9999922836427113
 10
57.0851063091389
 20
25.51204632248295
 30
0
 10
57.0523939693953
 20
25.5879143780385
 30
0
 10
56.98696979474832
 20
25.73964931829956
 30
0
 10
56.92154562010136
 20
25.89138425856063
 30
0
 10
56.88883378519797
 20
25.96725114326614
 30
0
  0
SPLINE
  5
A4
100
AcDbEntity
  8
0
  6
CONTINUOUS
 62
    7
370
   25
100
AcDbSpline
210
0
220
0
230
0
 70
    8
 71
    3
 72
    9
 73
    5
 74
    0
 42
1e-007
 43
1e-007
 40
0
 40
0
 40
0
 40
0
 40
0.5000000000000181
 40
0.9999986956521694
 40
0.9999986956521694
 40
0.9999986956521694
 40
0.9999986956521694
 10
55.22741400144658
 20
26.54409760453423
 30
0
 10
55.22741400144659
 20
26.60798649342313
 30
0
 10
55.22741400144658
 20
26.7357642712009
 30
0
 10
55.22741400144658
 20
26.86354204897868
 30
0
 10
55.22741400144658
 20
26.92743093786757
 30
0
  0
SPLINE
  5
A5
100
AcDbEntity
  8
0
  6
CONTINUOUS
 62
    7
370
   25
100
AcDbSpline
210
0
220
0
230
0
 70
    8
 71
    3
 72
    9
 73
    5
 74
    0
 42
1e-007
 43
1e-007
 40
0
 40
0
 40
0
 40
0
 40
0.4999999999999956
 40
0.9999993719806763
 40
0.9999993719806763
 40
0.9999993719806763
 40
0.9999993719806763
 10
54.43126015529273
 20
26.54409760453423
 30
0
 10
54.56395246298504
 20
26.54409760453423
 30
0
 10
54.82933707836963
 20
26.54409760453422
 30
0
 10
55.09472169375427
 20
26.54409760453423
 30
0
 10
55.22741400144658
 20
26.54409760453423
 30
0
  0
SPLINE
  5
A6
100
AcDbEntity
  8
0
  6
CONTINUOUS
 62
    7
370
   25
100
AcDbSpline
210
0
220
0
230
0
 70
    8
 71
    3
 72
    9
 73
    5
 74
    0
 42
1e-007
 43
1e-007
 40
0
 40
0
 40
0
 40
0
 40
0.5000000000000027
 40
0.9999992292490051
 40
0.9999992292490051
 40
0.9999992292490051
 40
0.9999992292490051
 10
54.43126015529273
 20
25.89537965581628
 30
0
 10
54.43126015529273
 20
26.00349931393594
 30
0
 10
54.43126015529272
 20
26.21973863017525
 30
0
 10
54.43126015529273
 20
26.43597794641458
 30
0
 10
54.43126015529273
 20
26.54409760453423
 30
0
  0
SPLINE
  5
A7
100
AcDbEntity
  8
0
  6
CONTINUOUS
 62
    7
370
   25
100
AcDbSpline
210
0
220
0
230
0
 70
    8
 71
    3
 72
    9
 73
    5
 74
    0
 42
1e-007
 43
1e-007
 40
0
 40
0
 40
0
 40
0
 40
0.5000000000000039
 40
1
 40
1
 40
1
 40
1
 10
55.31587553990812
 20
25.89537965581628
 30
0
 10
55.16843964247223
 20
25.89537965581629
 30
0
 10
54.87356784760042
 20
25.89537965581628
 30
0
 10
54.57869605272863
 20
25.89537965581628
 30
0
 10
54.43126015529273
 20
25.89537965581628
 30
0
  0
SPLINE
  5
A8
100
AcDbEntity
  8
0
  6
CONTINUOUS
 62
    7
370
   25
100
AcDbSpline
210
0
220
0
230
0
 70
    8
 71
    3
 72
    9
 73
    5
 74
    0
 42
1e-007
 43
1e-007
 40
0
 40
0
 40
0
 40
0
 40
0.499999999999991
 40
0.9999986956521738
 40
0.9999986956521738
 40
0.9999986956521738
 40
0.9999986956521738
 10
55.31587553990811
 20
25.51204632248295
 30
0
 10
55.31587553990811
 20
25.57593521137184
 30
0
 10
55.3158755399081
 20
25.70371298914961
 30
0
 10
55.31587553990811
 20
25.8314907669274
 30
0
 10
55.31587553990812
 20
25.89537965581628
 30
0
  0
SPLINE
  5
A9
100
AcDbEntity
  8
0
  6
CONTINUOUS
 62
    7
370
   25
100
AcDbSpline
210
0
220
0
230
0
 70
    8
 71
    3
 72
    9
 73
    5
 74
    0
 42
1e-007
 43
1e-007
 40
0
 40
0
 40
0
 40
0
 40
0.4999999999999999
 40
0.9999995864262918
 40
0.9999995864262918
 40
0.9999995864262918
 40
0.9999995864262918
 10
54.10690118093375
 20
25.51204632248295
 30
0
 10
54.30839690742948
 20
25.51204632248295
 30
0
 10
54.71138836042092
 20
25.51204632248295
 30
0
 10
55.11437981341238
 20
25.51204632248295
 30
0
 10
55.31587553990811
 20
25.51204632248295
 30
0
  0
SPLINE
  5
AA
100
AcDbEntity
  8
0
  6
CONTINUOUS
 62
    7
370
   25
100
AcDbSpline
210
0
220
0
230
0
 70
    8
 71
    3
 72
    9
 73
    5
 74
    0
 42
1e-007
 43
1e-007
 40
0
 40
0
 40
0
 40
0
 40
0.5000000000000022
 40
0.999999782608695
 40
0.999999782608695
 40
0.999999782608695
 40
0.999999782608695
 10
54.10690118093376
 20
27.81204632248296
 30
0
 10
54.10690118093377
 20
27.42871298914962
 30
0
 10
54.10690118093374
 20
26.66204632248295
 30
0
 10
54.10690118093374
 20
25.89537965581627
 30
0
 10
54.10690118093375
 20
25.51204632248295
 30
0
  0
SPLINE
  5
AB
100
AcDbEntity
  8
0
  6
CONTINUOUS
 62
    7
370
   25
100
AcDbSpline
210
0
220
0
230
0
 70
    8
 71
    3
 72
    9
 73
    5
 74
    0
 42
1e-007
 43
1e-007
 40
0
 40
0
 40
0
 40
0
 40
0.5000000000000059
 40
0.9999995760869527
 40
0.9999995760869527
 40
0.9999995760869527
 40
0.9999995760869527
 10
55.28638836042094
 20
27.81204632248296
 30
0
 10
55.08980716383974
 20
27.81204632248295
 30
0
 10
54.69664477067735
 20
27.81204632248295
 30
0
 10
54.30348237751496
 20
27.81204632248295
 30
0
 10
54.10690118093376
 20
27.81204632248296
 30
0
  0
SPLINE
  5
AC
100
AcDbEntity
  8
0
  6
CONTINUOUS
 62
    7
370
   25
100
AcDbSpline
210
0
220
0
230
0
 70
    8
 71
    3
 72
    9
 73
    5
 74
    0
 42
1e-007
 43
1e-007
 40
0
 40
0
 40
0
 40
0
 40
0.4999999999999865
 40
0.9999986956521694
 40
0.9999986956521694
 40
0.9999986956521694
 40
0.9999986956521694
 10
55.28638836042094
 20
27.42871298914962
 30
0
 10
55.28638836042094
 20
27.49260187803851
 30
0
 10
55.28638836042094
 20
27.62037965581629
 30
0
 10
55.28638836042094
 20
27.74815743359407
 30
0
 10
55.28638836042094
 20
27.81204632248296
 30
0
  0
SPLINE
  5
AD
100
AcDbEntity
  8
0
  6
CONTINUOUS
 62
    7
370
   25
100
AcDbSpline
210
0
220
0
230
0
 70
    8
 71
    3
 72
    9
 73
    5
 74
    0
 42
1e-007
 43
1e-007
 40
0
 40
0
 40
0
 40
0
 40
0.5000000000000081
 40
0.9999994152923533
 40
0.9999994152923533
 40
0.9999994152923533
 40
0.9999994152923533
 10
54.43126015529273
 20
27.42871298914962
 30
0
 10
54.57378152281409
 20
27.42871298914962
 30
0
 10
54.85882425785683
 20
27.42871298914963
 30
0
 10
55.14386699289958
 20
27.42871298914963
 30
0
 10
55.28638836042094
 20
27.42871298914962
 30
0
  0
SPLINE
  5
AE
100
AcDbEntity
  8
0
  6
CONTINUOUS
 62
    7
370
   25
100
AcDbSpline
210
0
220
0
230
0
 70
    8
 71
    3
 72
    9
 73
    5
 74
    0
 42
1e-007
 43
1e-007
 40
0
 40
0
 40
0
 40
0
 40
0.5
 40
0.9999990025575418
 40
0.9999990025575418
 40
0.9999990025575418
 40
0.9999990025575418
 10
54.43126015529274
 20
26.92743093786757
 30
0
 10
54.43126015529274
 20
27.01097794641458
 30
0
 10
54.43126015529274
 20
27.17807196350859
 30
0
 10
54.43126015529274
 20
27.34516598060262
 30
0
 10
54.43126015529273
 20
27.42871298914962
 30
0
  0
SPLINE
  5
AF
100
AcDbEntity
  8
0
  6
CONTINUOUS
 62
    7
370
   25
100
AcDbSpline
210
0
220
0
230
0
 70
    8
 71
    3
 72
    9
 73
    5
 74
    0
 42
1e-007
 43
1e-007
 40
0
 40
0
 40
0
 40
0
 40
0.5000000000000131
 40
0.9999993719806728
 40
0.9999993719806728
 40
0.9999993719806728
 40
0.9999993719806728
 10
55.22741400144658
 20
26.92743093786757
 30
0
 10
55.09472169375427
 20
26.92743093786757
 30
0
 10
54.82933707836966
 20
26.92743093786757
 30
0
 10
54.56395246298504
 20
26.92743093786757
 30
0
 10
54.43126015529274
 20
26.92743093786757
 30
0
  0
SPLINE
  5
B0
100
AcDbEntity
  8
0
  6
CONTINUOUS
 62
    7
370
   25
100
AcDbSpline
210
0
220
0
230
0
 70
    8
 71
    3
 72
    9
 73
    5
 74
    0
 42
1e-007
 43
1e-007
 40
0
 40
0
 40
0
 40
0
 40
0.4999999999999896
 40
0.9999984820907742
 40
0.9999984820907742
 40
0.9999984820907742
 40
0.9999984820907742
 10
53.92997810401069
 20
27.81204632248296
 30
0
 10
53.87445927388248
 20
27.81204632248295
 30
0
 10
53.76342161362606
 20
27.81204632248296
 30
0
 10
53.65238395336965
 20
27.81204632248295
 30
0
 10
53.59686512324146
 20
27.81204632248296
 30
0
  0
SPLINE
  5
B1
100
AcDbEntity
  8
0
  6
CONTINUOUS
 62
    7
370
   25
100
AcDbSpline
210
0
220
0
230
0
 70
    8
 71
    3
 72
    9
 73
    5
 74
    0
 42
1e-007
 43
1e-007
 40
0
 40
0
 40
0
 40
0
 40
0.5000000000000037
 40
0.9999997826086948
 40
0.9999997826086948
 40
0.9999997826086948
 40
0.9999997826086948
 10
53.55401656554915
 20
25.51204632248295
 30
0
 10
53.61667682195941
 20
25.89537965581629
 30
0
 10
53.74199733477994
 20
26.66204632248295
 30
0
 10
53.86731784760045
 20
27.42871298914963
 30
0
 10
53.92997810401069
 20
27.81204632248296
 30
0
  0
SPLINE
  5
B2
100
AcDbEntity
  8
0
  6
CONTINUOUS
 62
    7
370
   25
100
AcDbSpline
210
0
220
0
230
0
 70
    8
 71
    3
 72
    9
 73
    5
 74
    0
 42
1e-007
 43
1e-007
 40
0
 40
0
 40
0
 40
0
 40
0.5
 40
0.999998741853382
 40
0.999998741853382
 40
0.999998741853382
 40
0.999998741853382
 10
53.15133227067736
 20
25.51204632248296
 30
0
 10
53.21844631982265
 20
25.51204632248296
 30
0
 10
53.35267441811325
 20
25.51204632248296
 30
0
 10
53.48690251640385
 20
25.51204632248296
 30
0
 10
53.55401656554915
 20
25.51204632248295
 30
0
  0
SPLINE
  5
B3
100
AcDbEntity
  8
0
  6
CONTINUOUS
 62
    7
370
   25
100
AcDbSpline
210
0
220
0
230
0
 70
    8
 71
    3
 72
    9
 73
    5
 74
    0
 42
1e-007
 43
1e-007
 40
0
 40
0
 40
0
 40
0
 40
0.5000000000000013
 40
1
 40
1
 40
1
 40
1
 10
52.85369605272863
 20
27.23151747632911
 30
0
 10
52.90330208905342
 20
26.94493895068809
 30
0
 10
53.002514161703
 20
26.37178189940603
 30
0
 10
53.10172623435258
 20
25.79862484812398
 30
0
 10
53.15133227067736
 20
25.51204632248296
 30
0
  0
SPLINE
  5
B4
100
AcDbEntity
  8
0
  6
CONTINUOUS
 62
    7
370
   25
100
AcDbSpline
210
0
220
0
230
0
 70
    8
 71
    3
 72
    9
 73
    5
 74
    0
 42
1e-007
 43
1e-007
 40
0
 40
0
 40
0
 40
0
 40
0.5000000000000001
 40
0.9999991579851265
 40
0.9999991579851265
 40
0.9999991579851265
 40
0.9999991579851265
 10
52.54868803990812
 20
25.51204632248296
 30
0
 10
52.59952270871155
 20
25.79862484812398
 30
0
 10
52.7011920463184
 20
26.37178189940603
 30
0
 10
52.80286138392522
 20
26.94493895068809
 30
0
 10
52.85369605272863
 20
27.23151747632911
 30
0
  0
SPLINE
  5
B5
100
AcDbEntity
  8
0
  6
CONTINUOUS
 62
    7
370
   25
100
AcDbSpline
210
0
220
0
230
0
 70
    8
 71
    3
 72
    9
 73
    5
 74
    0
 42
1e-007
 43
1e-007
 40
0
 40
0
 40
0
 40
0
 40
0.5
 40
0.999998694124956
 40
0.999998694124956
 40
0.999998694124956
 40
0.999998694124956
 10
52.15982586042094
 20
25.51204632248296
 30
0
 10
52.2246362236688
 20
25.51204632248296
 30
0
 10
52.35425695016453
 20
25.51204632248296
 30
0
 10
52.48387767666026
 20
25.51204632248296
 30
0
 10
52.54868803990812
 20
25.51204632248296
 30
0
  0
SPLINE
  5
B6
100
AcDbEntity
  8
0
  6
CONTINUOUS
 62
    7
370
   25
100
AcDbSpline
210
0
220
0
230
0
 70
    8
 71
    3
 72
    9
 73
    5
 74
    0
 42
1e-007
 43
1e-007
 40
0
 40
0
 40
0
 40
0
 40
0.4999999999999973
 40
0.9999997826086948
 40
0.9999997826086948
 40
0.9999997826086948
 40
0.9999997826086948
 10
51.77741400144659
 20
27.81204632248296
 30
0
 10
51.84114931127566
 20
27.42871298914963
 30
0
 10
51.96861993093378
 20
26.66204632248296
 30
0
 10
52.09609055059189
 20
25.89537965581629
 30
0
 10
52.15982586042094
 20
25.51204632248296
 30
0
  0
SPLINE
  5
B7
100
AcDbEntity
  8
0
  6
CONTINUOUS
 62
    7
370
   25
100
AcDbSpline
210
0
220
0
230
0
 70
    8
 71
    3
 72
    9
 73
    5
 74
    0
 42
1e-007
 43
1e-007
 40
0
 40
0
 40
0
 40
0
 40
0.5
 40
0.9999984784021605
 40
0.9999984784021605
 40
0.9999984784021605
 40
0.9999984784021605
 10
52.11052698221582
 20
27.81204632248296
 30
0
 10
52.05500815208761
 20
27.81204632248296
 30
0
 10
51.94397049183119
 20
27.81204632248296
 30
0
 10
51.83293283157479
 20
27.81204632248296
 30
0
 10
51.77741400144659
 20
27.81204632248296
 30
0
  0
SPLINE
  5
B8
100
AcDbEntity
  8
0
  6
CONTINUOUS
 62
    7
370
   25
100
AcDbSpline
210
0
220
0
230
0
 70
    8
 71
    3
 72
    9
 73
    5
 74
    0
 42
1e-007
 43
1e-007
 40
0
 40
0
 40
0
 40
0
 40
0.500000000000001
 40
0.9999996835178209
 40
0.9999996835178209
 40
0.9999996835178209
 40
0.9999996835178209
 10
52.35241400144659
 20
26.23217853402142
 30
0
 10
52.31209949824146
 20
26.49548983209835
 30
0
 10
52.2314704918312
 20
27.0221124282522
 30
0
 10
52.15084148542093
 20
27.54873502440603
 30
0
 10
52.11052698221582
 20
27.81204632248296
 30
0
  0
SPLINE
  5
B9
100
AcDbEntity
  8
0
  6
CONTINUOUS
 62
    7
370
   25
100
AcDbSpline
210
0
220
0
230
0
 70
    8
 71
    3
 72
    9
 73
    5
 74
    0
 42
1e-007
 43
1e-007
 40
0
 40
0
 40
0
 40
0
 40
0.4999999999999978
 40
0.9999990310121594
 40
0.9999990310121594
 40
0.9999990310121594
 40
0.9999990310121594
 10
52.63254220657478
 20
27.81204632248296
 30
0
 10
52.58585417238675
 20
27.54873502440604
 30
0
 10
52.49247810401071
 20
27.02211242825219
 30
0
 10
52.39910203563463
 20
26.49548983209835
 30
0
 10
52.35241400144659
 20
26.23217853402142
 30
0
  0
SPLINE
  5
BA
100
AcDbEntity
  8
0
  6
CONTINUOUS
 62
    7
370
   25
100
AcDbSpline
210
0
220
0
230
0
 70
    8
 71
    3
 72
    9
 73
    5
 74
    0
 42
1e-007
 43
1e-007
 40
0
 40
0
 40
0
 40
0
 40
0.4999999999999843
 40
0.9999988578812329
 40
0.9999988578812329
 40
0.9999988578812329
 40
0.9999988578812329
 10
53.07715358477993
 20
27.81204632248296
 30
0
 10
53.00305168841241
 20
27.81204632248296
 30
0
 10
52.85484789567736
 20
27.81204632248296
 30
0
 10
52.70664410294231
 20
27.81204632248295
 30
0
 10
52.63254220657478
 20
27.81204632248296
 30
0
  0
SPLINE
  5
BB
100
AcDbEntity
  8
0
  6
CONTINUOUS
 62
    7
370
   25
100
AcDbSpline
210
0
220
0
230
0
 70
    8
 71
    3
 72
    9
 73
    5
 74
    0
 42
1e-007
 43
1e-007
 40
0
 40
0
 40
0
 40
0
 40
0.5000000000000007
 40
0.9999996887819331
 40
0.9999996887819331
 40
0.9999996887819331
 40
0.9999996887819331
 10
53.35497810401068
 20
26.20545577761116
 30
0
 10
53.30867401747224
 20
26.47322086842313
 30
0
 10
53.21606584439532
 20
27.00875105004706
 30
0
 10
53.1234576713184
 20
27.54428123167099
 30
0
 10
53.07715358477993
 20
27.81204632248296
 30
0
  0
SPLINE
  5
BC
100
AcDbEntity
  8
0
  6
CONTINUOUS
 62
    7
370
   25
100
AcDbSpline
210
0
220
0
230
0
 70
    8
 71
    3
 72
    9
 73
    5
 74
    0
 42
1e-007
 43
1e-007
 40
0
 40
0
 40
0
 40
0
 40
0.5000000000000007
 40
0.9999990236488461
 40
0.9999990236488461
 40
0.9999990236488461
 40
0.9999990236488461
 10
53.59686512324146
 20
27.81204632248296
 30
0
 10
53.55655062003633
 20
27.54428123167099
 30
0
 10
53.47592161362608
 20
27.00875105004705
 30
0
 10
53.39529260721581
 20
26.47322086842312
 30
0
 10
53.35497810401068
 20
26.20545577761116
 30
0
  0
SPLINE
  5
BD
100
AcDbEntity
  8
0
  6
CONTINUOUS
 62
    7
370
   25
100
AcDbSpline
210
0
220
0
230
0
 70
    8
 71
    3
 72
    9
 73
    5
 74
    0
 42
1e-007
 43
1e-007
 40
0
 40
0
 40
0
 40
0
 40
0.4366116660007054
 40
0.9999988183569352
 40
0.9999988183569352
 40
0.9999988183569352
 40
0.9999988183569352
 10
49.52901656554914
 20
26.40034760453424
 30
0
 10
49.63126250669819
 20
26.47361868523608
 30
0
 10
49.86544301333833
 20
26.64143619083092
 30
0
 10
49.88130055838304
 20
26.93370410065824
 30
0
 10
49.89023451426709
 20
27.09836443145731
 30
0
  0
SPLINE
  5
BE
100
AcDbEntity
  8
0
  6
CONTINUOUS
 62
    7
370
   25
100
AcDbSpline
210
0
220
0
230
0
 70
    8
 71
    3
 72
    9
 73
    5
 74
    0
 42
1e-007
 43
1e-007
 40
0
 40
0
 40
0
 40
0
 40
0.4403638184019478
 40
0.9999981507951575
 40
0.9999981507951575
 40
0.9999981507951575
 40
0.9999981507951575
 10
49.18945326426709
 20
26.36717452761116
 30
0
 10
49.23972148614983
 20
26.36735072540653
 30
0
 10
49.35387305760536
 20
26.36775084409931
 30
0
 10
49.46617072677351
 20
26.38865107764065
 30
0
 10
49.52901656554914
 20
26.40034760453424
 30
0
  0
SPLINE
  5
BF
100
AcDbEntity
  8
0
  6
CONTINUOUS
 62
    7
370
   25
100
AcDbSpline
210
0
220
0
230
0
 70
    8
 71
    3
 72
    9
 73
    5
 74
    0
 42
1e-007
 43
1e-007
 40
0
 40
0
 40
0
 40
0
 40
0.5000000000000162
 40
0.9999999999999999
 40
0.9999999999999999
 40
0.9999999999999999
 40
0.9999999999999999
 10
48.97613195016451
 20
26.36717452761116
 30
0
 10
49.01168550251495
 20
26.36717452761116
 30
0
 10
49.0827926072158
 20
26.36717452761115
 30
0
 10
49.15389971191667
 20
26.36717452761116
 30
0
 10
49.18945326426709
 20
26.36717452761116
 30
0
  0
SPLINE
  5
C0
100
AcDbEntity
  8
0
  6
CONTINUOUS
 62
    7
370
   25
100
AcDbSpline
210
0
220
0
230
0
 70
    8
 71
    3
 72
    9
 73
    5
 74
    0
 42
1e-007
 43
1e-007
 40
0
 40
0
 40
0
 40
0
 40
0.500000000000004
 40
0.9999994152923496
 40
0.9999994152923496
 40
0.9999994152923496
 40
0.9999994152923496
 10
48.97613195016452
 20
25.51204632248295
 30
0
 10
48.97613195016453
 20
25.65456769000432
 30
0
 10
48.97613195016451
 20
25.93961042504705
 30
0
 10
48.97613195016451
 20
26.22465316008979
 30
0
 10
48.97613195016451
 20
26.36717452761116
 30
0
  0
SPLINE
  5
C1
100
AcDbEntity
  8
0
  6
CONTINUOUS
 62
    7
370
   25
100
AcDbSpline
210
0
220
0
230
0
 70
    8
 71
    3
 72
    9
 73
    5
 74
    0
 42
1e-007
 43
1e-007
 40
0
 40
0
 40
0
 40
0
 40
0.4999999999999893
 40
0.9999984584980184
 40
0.9999984584980184
 40
0.9999984584980184
 40
0.9999984584980184
 10
48.65177297580554
 20
25.51204632248295
 30
0
 10
48.70583280486537
 20
25.51204632248295
 30
0
 10
48.81395246298504
 20
25.51204632248295
 30
0
 10
48.9220721211047
 20
25.51204632248295
 30
0
 10
48.97613195016452
 20
25.51204632248295
 30
0
  0
SPLINE
  5
C2
100
AcDbEntity
  8
0
  6
CONTINUOUS
 62
    7
370
   25
100
AcDbSpline
210
0
220
0
230
0
 70
    8
 71
    3
 72
    9
 73
    5
 74
    0
 42
1e-007
 43
1e-007
 40
0
 40
0
 40
0
 40
0
 40
0.4999999999999993
 40
0.9999997826086949
 40
0.9999997826086949
 40
0.9999997826086949
 40
0.9999997826086949
 10
48.65177297580554
 20
27.81204632248295
 30
0
 10
48.65177297580554
 20
27.42871298914962
 30
0
 10
48.65177297580556
 20
26.66204632248296
 30
0
 10
48.65177297580555
 20
25.89537965581629
 30
0
 10
48.65177297580554
 20
25.51204632248295
 30
0
  0
SPLINE
  5
C3
100
AcDbEntity
  8
0
  6
CONTINUOUS
 62
    7
370
   25
100
AcDbSpline
210
0
220
0
230
0
 70
    8
 71
    3
 72
    9
 73
    5
 74
    0
 42
1e-007
 43
1e-007
 40
0
 40
0
 40
0
 40
0
 40
0.5
 40
0.9999990455431749
 40
0.9999990455431749
 40
0.9999990455431749
 40
0.9999990455431749
 10
49.17563114888247
 20
27.81204632248295
 30
0
 10
49.08832145336965
 20
27.81204632248295
 30
0
 10
48.913702062344
 20
27.81204632248294
 30
0
 10
48.73908267131836
 20
27.81204632248295
 30
0
 10
48.65177297580554
 20
27.81204632248295
 30
0
  0
SPLINE
  5
C4
100
AcDbEntity
  8
0
  6
CONTINUOUS
 62
    7
370
   25
100
AcDbSpline
210
0
220
0
230
0
 70
    8
 71
    3
 72
    9
 73
    5
 74
    0
 42
1e-007
 43
1e-007
 40
0
 40
0
 40
0
 40
0
 40
0.4393404123055548
 40
1
 40
1
 40
1
 40
1
 10
49.56357185401068
 20
27.77703029684193
 30
0
 10
49.50735494515624
 20
27.78820002944035
 30
0
 10
49.37939742684043
 20
27.81362389732404
 30
0
 10
49.24883322208712
 20
27.81261305879556
 30
0
 10
49.17563114888247
 20
27.81204632248295
 30
0
  0
SPLINE
  5
C5
100
AcDbEntity
  8
0
  6
CONTINUOUS
 62
    7
370
   25
100
AcDbSpline
210
0
220
0
230
0
 70
    8
 71
    3
 72
    9
 73
    5
 74
    0
 42
1e-007
 43
1e-007
 40
0
 40
0
 40
0
 40
0
 40
0.4467641136762177
 40
0.9999989908429858
 40
0.9999989908429858
 40
0.9999989908429858
 40
0.9999989908429858
 10
49.89023451426709
 20
27.09836443145731
 30
0
 10
49.88694409849547
 20
27.21959285603603
 30
0
 10
49.87957910280558
 20
27.49094057817329
 30
0
 10
49.67612819648971
 20
27.67513006361311
 30
0
 10
49.56357185401068
 20
27.77703029684193
 30
0
  0
CIRCLE
  5
C6
100
AcDbEntity
  8
0
  6
CONTINUOUS
 62
    7
370
   25
100
AcDbCircle
 10
46.1496503177
 20
26.6453112488
 40
1.486617468343944
  0
SPLINE
  5
C7
100
AcDbEntity
  8
0
  6
CONTINUOUS
 62
    7
370
   25
100
AcDbSpline
210
0
220
0
230
0
 70
    8
 71
    3
 72
    9
 73
    5
 74
    0
 42
1e-007
 43
1e-007
 40
0
 40
0
 40
0
 40
0
 40
0.4392433410901215
 40
0.9999967630850164
 40
0.9999967630850164
 40
0.9999967630850164
 40
0.9999967630850164
 10
50.53664877708761
 20
27.75122901479065
 30
0
 10
50.46253916692692
 20
27.69057555848434
 30
0
 10
50.29381808859079
 20
27.55248933011765
 30
0
 10
50.21560400123761
 20
27.34772349399218
 30
0
 10
50.17174493093376
 20
27.23289968786758
 30
0
  0
SPLINE
  5
C8
100
AcDbEntity
  8
0
  6
CONTINUOUS
 62
    7
370
   25
100
AcDbSpline
210
0
220
0
230
0
 70
    8
 71
    3
 72
    9
 73
    5
 74
    0
 42
1e-007
 43
1e-007
 40
0
 40
0
 40
0
 40
0
 40
0.4404828917320687
 40
0.9999972873231376
 40
0.9999972873231376
 40
0.9999972873231376
 40
0.9999972873231376
 10
50.89049493093376
 20
27.84153350197014
 30
0
 10
50.83593394535206
 20
27.8392162188809
 30
0
 10
50.7120676463293
 20
27.83395544001132
 30
0
 10
50.59958483462323
 20
27.78090926002259
 30
0
 10
50.53664877708761
 20
27.75122901479065
 30
0
  0
SPLINE
  5
C9
100
AcDbEntity
  8
0
  6
CONTINUOUS
 62
    7
370
   25
100
AcDbSpline
210
0
220
0
230
0
 70
    8
 71
    3
 72
   10
 73
    6
 74
    0
 42
1e-007
 43
1e-007
 40
0
 40
0
 40
0
 40
0
 40
0.5005201884229374
 40
0.7508848459229647
 40
1
 40
1
 40
1
 40
1
 10
51.68895246298504
 20
26.65882116222655
 30
0
 10
51.67046870092953
 20
26.92694549038156
 30
0
 10
51.64273919641772
 20
27.32918799626176
 30
0
 10
51.29296315800492
 20
27.77718886641526
 30
0
 10
51.02442708249497
 20
27.82012109000411
 30
0
 10
50.89049493093376
 20
27.84153350197014
 30
0
  0
SPLINE
  5
CA
100
AcDbEntity
  8
0
  6
CONTINUOUS
 62
    7
370
   25
100
AcDbSpline
210
0
220
0
230
0
 70
    8
 71
    3
 72
   10
 73
    6
 74
    0
 42
1e-007
 43
1e-007
 40
0
 40
0
 40
0
 40
0
 40
0.2491336973974152
 40
0.4994844804685696
 40
0.9999994926971798
 40
0.9999994926971798
 40
0.9999994926971798
 40
0.9999994926971798
 10
50.89510230272862
 20
25.48255914299578
 30
0
 10
51.02833785812133
 20
25.50379612045471
 30
0
 10
51.29545986072666
 20
25.54637382376666
 30
0
 10
51.64288576684875
 20
25.9922982308144
 30
0
 10
51.67052715430472
 20
26.39223180844606
 30
0
 10
51.68895246298504
 20
26.65882116222655
 30
0
  0
SPLINE
  5
CB
100
AcDbEntity
  8
0
  6
CONTINUOUS
 62
    7
370
   25
100
AcDbSpline
210
0
220
0
230
0
 70
    8
 71
    3
 72
   10
 73
    6
 74
    0
 42
1e-007
 43
1e-007
 40
0
 40
0
 40
0
 40
0
 40
0.5003898792468409
 40
0.7506755188754732
 40
0.9999996580619721
 40
0.9999996580619721
 40
0.9999996580619721
 40
0.9999996580619721
 10
50.09664477067734
 20
26.64822420709834
 30
0
 10
50.11557812937873
 20
26.38229015749786
 30
0
 10
50.14398159926627
 20
25.98334088024437
 30
0
 10
50.49603915505816
 20
25.54381027959293
 30
0
 10
50.76225196842785
 20
25.50294998595066
 30
0
 10
50.89510230272862
 20
25.48255914299578
 30
0
  0
SPLINE
  5
CC
100
AcDbEntity
  8
0
  6
CONTINUOUS
 62
    7
370
   25
100
AcDbSpline
210
0
220
0
230
0
 70
    8
 71
    3
 72
    9
 73
    5
 74
    0
 42
1e-007
 43
1e-007
 40
0
 40
0
 40
0
 40
0
 40
0.4398903779103272
 40
0.9999985495615802
 40
0.9999985495615802
 40
0.9999985495615802
 40
0.9999985495615802
 10
50.17174493093376
 20
27.23289968786758
 30
0
 10
50.15060231926176
 20
27.14856390589457
 30
0
 10
50.10253895453793
 20
26.9568439088043
 30
0
 10
50.09876089703663
 20
26.75902466755599
 30
0
 10
50.09664477067734
 20
26.64822420709834
 30
0
  0
ENDSEC
  0
SECTION
  2
OBJECTS
  0
DICTIONARY
  5
C
330
0
100
AcDbDictionary
281
    1
  3
ACAD_GROUP
350
D
  0
DICTIONARY
  5
D
330
C
100
AcDbDictionary
281
    1
  0
ENDSEC
  0
EOF
