  0
SECTION
  2
HEADER
  9
$ACADVER
  1
AC1009
  9
$INSBASE
 10
0.0
 20
0.0
 30
0.0
  9
$EXTMIN
 10
0.0
 20
0.0
 30
0.0
  9
$EXTMAX
 10
0.0
 20
0.0
 30
0.0
  0
ENDSEC
  0
SECTION
  2
TABLES
  0
TABLE
  2
VPORT
 70
0
  0
ENDTAB
  0
TABLE
  2
LTYPE
 70
1
  0
LTYPE
  2
CONTINUOUS
 70
0
  3
Solid line
 72
65
 73
0
 40
0.0
  0
ENDTAB
  0
TABLE
  2
LAYER
 70
1
  0
LAYER
  2
0
 70
64
 62
7
  6
continuous
  0
ENDTAB
  0
TABLE
  2
STYLE
 70
1
  0
STYLE
  2
STANDARD
 70
0
 40
0
 41
1.0
 50
0.0
 71
0
 42
1
 3
ARIAL.TTF
 4

  0
ENDTAB
  0
TABLE
  2
VIEW
 70
0
  0
ENDTAB
  0
ENDSEC
  0
SECTION
  2
BLOCKS
  0
ENDSEC
  0
SECTION
  2
ENTITIES
  0
CIRCLE
  8
0
 62
0
 10
-52.537626626
 20
7.1247721057
 30
0.0
 40
2.900964760476384
  0
LINE
  8
0
 62
0
 10
-50.9582181159
 20
2.6881478791
 30
0.0
 11
-50.9597309812
 21
2.6923975807
 31
0.0
  0
LINE
  8
0
 62
0
 10
-47.9872665188
 20
8.8942438737
 30
0.0
 11
-47.9915228035
 21
8.8925887574
 31
0.0
  0
LINE
  8
0
 62
0
 10
-54.3070983939
 20
11.6751322128
 30
0.0
 11
-54.3054432777
 21
11.6708759281
 31
0.0
  0
LINE
  8
0
 62
0
 10
-57.346843121
 20
8.9184663042
 30
0.0
 11
-57.3426163553
 21
8.9168898467
 31
0.0
  0
LINE
  8
0
 62
0
 10
-50.7416917708
 20
2.3151194127
 30
0.0
 11
-50.7432698311
 21
2.3193455805
 31
0.0
  0
LINE
  8
0
 62
0
 10
-56.9742508526
 20
5.5453635956
 30
0.0
 11
-56.970001151
 21
5.5468764609
 31
0.0
  0
LINE
  8
0
 62
0
 10
-57.347279319
 20
5.3288372505
 30
0.0
 11
-57.3430531512
 21
5.3304153108
 31
0.0
  0
LINE
  8
0
 62
0
 10
-48.1010023993
 20
8.7041806158
 30
0.0
 11
-48.1052521009
 21
8.7026677505
 31
0.0
  0
LINE
  8
0
 62
0
 10
-47.7284101309
 20
5.3310779072
 30
0.0
 11
-47.7326368966
 21
5.3326543647
 31
0.0
  0
LINE
  8
0
 62
0
 10
-48.1013894592
 20
5.5476910178
 30
0.0
 11
-48.1056400579
 21
5.5492021045
 31
0.0
  0
LINE
  8
0
 62
0
 10
-47.7279739329
 20
8.9207069609
 30
0.0
 11
-47.7322001007
 21
8.9191289006
 31
0.0
  0
LINE
  8
0
 62
0
 10
-54.1170351361
 20
11.5613963323
 30
0.0
 11
-54.1155222708
 21
11.5571466307
 31
0.0
  0
LINE
  8
0
 62
0
 10
-54.3335614811
 20
11.9344247987
 30
0.0
 11
-54.3319834208
 21
11.930198631
 31
0.0
  0
LINE
  8
0
 62
0
 10
-57.0879867331
 20
5.3553003377
 30
0.0
 11
-57.0837304484
 21
5.356955454
 31
0.0
  0
LINE
  8
0
 62
0
 10
-54.1147077138
 20
2.6885349389
 30
0.0
 11
-54.1131966272
 21
2.6927855376
 31
0.0
  0
LINE
  8
0
 62
0
 10
-50.9605455381
 20
11.5610092725
 30
0.0
 11
-50.9620566248
 21
11.5567586738
 31
0.0
  0
LINE
  8
0
 62
0
 10
-50.768154858
 20
2.5744119986
 30
0.0
 11
-50.7698099743
 21
2.5786682833
 31
0.0
  0
CIRCLE
  8
0
 62
0
 10
-52.537626626
 20
7.1247721057
 30
0.0
 40
1.9987261996067431
  0
LINE
  8
0
 62
0
 10
-56.9738637928
 20
8.7018531936
 30
0.0
 11
-56.969613194
 21
8.7003421069
 31
0.0
  0
LINE
  8
0
 62
0
 10
-54.3313208244
 20
2.3155556107
 30
0.0
 11
-54.329744367
 21
2.3197823763
 31
0.0
  0
LINE
  8
0
 62
0
 10
-50.7439324275
 20
11.9339886007
 30
0.0
 11
-50.7455088849
 21
11.9297618351
 31
0.0
  0
LINE
  8
0
 62
0
 10
-56.2401927821
 20
-1.2502278943
 30
0.0
 11
-56.2401927821
 21
3.139848874
 31
0.0
  0
LINE
  8
0
 62
0
 10
-48.8369861313
 20
3.139848874
 30
0.0
 11
-48.8369861313
 21
-1.2502278943
 31
0.0
  0
LINE
  8
0
 62
0
 10
-54.9901927821
 20
-2.2502278943
 30
0.0
 11
-54.9901927821
 21
-2.5002278943
 31
0.0
  0
LINE
  8
0
 62
0
 10
-56.3901927821
 20
3.289848874
 30
0.0
 11
-60.9135894567
 21
3.289848874
 31
0.0
  0
LINE
  8
0
 62
0
 10
-48.8369861313
 20
15.4997721057
 30
0.0
 11
-48.8369861313
 21
11.1096953374
 31
0.0
  0
LINE
  8
0
 62
0
 10
-56.2401927821
 20
11.1096953374
 30
0.0
 11
-56.2401927821
 21
15.4997721057
 31
0.0
  0
LINE
  8
0
 62
0
 10
-62.1635894567
 20
4.539848874
 30
0.0
 11
-62.1635894567
 21
9.7096953374
 31
0.0
  0
LINE
  8
0
 62
0
 10
-55.9901927821
 20
-1.2502278943
 30
0.0
 11
-56.2401927821
 21
-1.2502278943
 31
0.0
  0
LINE
  8
0
 62
0
 10
-42.9135894567
 20
4.539848874
 30
0.0
 11
-43.1635894567
 21
4.539848874
 31
0.0
  0
LINE
  8
0
 62
0
 10
-56.3901927821
 20
3.539848874
 30
0.0
 11
-56.3901927821
 21
3.289848874
 31
0.0
  0
LINE
  8
0
 62
0
 10
-50.0869861313
 20
-2.5002278943
 30
0.0
 11
-54.9901927821
 21
-2.5002278943
 31
0.0
  0
LINE
  8
0
 62
0
 10
-54.9901927821
 20
16.7497721057
 30
0.0
 11
-50.0869861313
 21
16.7497721057
 31
0.0
  0
LINE
  8
0
 62
0
 10
-55.9901927821
 20
3.139848874
 30
0.0
 11
-55.9901927821
 21
-1.2502278943
 31
0.0
  0
LINE
  8
0
 62
0
 10
-56.3901927821
 20
10.7096953374
 30
0.0
 11
-60.9135894567
 21
10.7096953374
 31
0.0
  0
LINE
  8
0
 62
0
 10
-48.6869861313
 20
10.9596953374
 30
0.0
 11
-44.1635894567
 21
10.9596953374
 31
0.0
  0
LINE
  8
0
 62
0
 10
-60.9135894567
 20
10.7096953374
 30
0.0
 11
-60.9135894567
 21
10.9596953374
 31
0.0
  0
LINE
  8
0
 62
0
 10
-56.3901927821
 20
10.7096953374
 30
0.0
 11
-56.3901927821
 21
10.9596953374
 31
0.0
  0
LINE
  8
0
 62
0
 10
-49.0869861313
 20
11.1096953374
 30
0.0
 11
-49.0869861313
 21
15.4997721057
 31
0.0
  0
LINE
  8
0
 62
0
 10
-48.8369861313
 20
15.4997721057
 30
0.0
 11
-49.0869861313
 21
15.4997721057
 31
0.0
  0
LINE
  8
0
 62
0
 10
-55.9901927821
 20
3.139848874
 30
0.0
 11
-56.2401927821
 21
3.139848874
 31
0.0
  0
LINE
  8
0
 62
0
 10
-44.1635894567
 20
3.289848874
 30
0.0
 11
-48.6869861313
 21
3.289848874
 31
0.0
  0
LINE
  8
0
 62
0
 10
-44.1635894567
 20
3.289848874
 30
0.0
 11
-44.1635894567
 21
3.539848874
 31
0.0
  0
LINE
  8
0
 62
0
 10
-48.8369861313
 20
11.1096953374
 30
0.0
 11
-49.0869861313
 21
11.1096953374
 31
0.0
  0
LINE
  8
0
 62
0
 10
-61.9135894567
 20
9.7096953374
 30
0.0
 11
-61.9135894567
 21
4.539848874
 31
0.0
  0
LINE
  8
0
 62
0
 10
-42.9135894567
 20
9.7096953374
 30
0.0
 11
-42.9135894567
 21
4.539848874
 31
0.0
  0
LINE
  8
0
 62
0
 10
-60.9135894567
 20
10.9596953374
 30
0.0
 11
-56.3901927821
 21
10.9596953374
 31
0.0
  0
LINE
  8
0
 62
0
 10
-60.9135894567
 20
3.539848874
 30
0.0
 11
-60.9135894567
 21
3.289848874
 31
0.0
  0
LINE
  8
0
 62
0
 10
-42.9135894567
 20
9.7096953374
 30
0.0
 11
-43.1635894567
 21
9.7096953374
 31
0.0
  0
LINE
  8
0
 62
0
 10
-50.0869861313
 20
16.4997721057
 30
0.0
 11
-54.9901927821
 21
16.4997721057
 31
0.0
  0
ARC
  8
0
 62
0
 10
-50.2635894567
 20
-1.0881057355
 30
0.0
 40
0.6000000000000085
 50
-90.0
 51
-0.0
  0
ARC
  8
0
 62
0
 10
-43.333648006
 20
15.4579064988
 30
0.0
 40
6.946527354457248
 50
176.03986696660002
 51
-178.57764817330005
  0
ARC
  8
0
 62
0
 10
-43.333648006
 20
-1.2083622874
 30
0.0
 40
6.946527354459757
 50
178.57764817330005
 51
-176.03986696659996
  0
LINE
  8
0
 62
0
 10
-48.8369861313
 20
-1.2502278943
 30
0.0
 11
-49.0869861313
 21
-1.2502278943
 31
0.0
  0
LINE
  8
0
 62
0
 10
-50.0869861313
 20
16.7497721057
 30
0.0
 11
-50.0869861313
 21
16.4997721057
 31
0.0
  0
ARC
  8
0
 62
0
 10
-60.7843422984
 20
-2.0186662925
 30
0.0
 40
6.890367084974455
 50
88.56618407289999
 51
93.9923220848
  0
ARC
  8
0
 62
0
 10
-54.94604523
 20
1.4692338895
 30
0.0
 40
2.13750713304539
 50
85.66530939049998
 51
102.6346510377001
  0
LINE
  8
0
 62
0
 10
-43.1635894567
 20
4.539848874
 30
0.0
 11
-43.1635894567
 21
9.7096953374
 31
0.0
  0
LINE
  8
0
 62
0
 10
-44.1635894567
 20
10.7096953374
 30
0.0
 11
-48.6869861313
 21
10.7096953374
 31
0.0
  0
ARC
  8
0
 62
0
 10
-44.3814378828
 20
9.4080442286
 30
0.0
 40
0.6000000000000156
 50
-0.0
 51
89.70669223980016
  0
ARC
  8
0
 62
0
 10
-50.1230536895
 20
-2.8550364253
 30
0.0
 40
1.8256920451301317
 50
75.42389296499995
 51
94.8696467443
  0
ARC
  8
0
 62
0
 10
-60.7843334081
 20
16.2873839628
 30
0.0
 40
6.919848970743792
 50
-93.9753592556
 51
-88.57222507080006
  0
LINE
  8
0
 62
0
 10
-55.9901927821
 20
15.4997721057
 30
0.0
 11
-55.9901927821
 21
11.1096953374
 31
0.0
  0
LINE
  8
0
 62
0
 10
-44.1635894567
 20
10.9596953374
 30
0.0
 11
-44.1635894567
 21
10.7096953374
 31
0.0
  0
LINE
  8
0
 62
0
 10
-55.9901927821
 20
11.1096953374
 30
0.0
 11
-56.2401927821
 21
11.1096953374
 31
0.0
  0
LINE
  8
0
 62
0
 10
-55.9901927821
 20
15.4997721057
 30
0.0
 11
-56.2401927821
 21
15.4997721057
 31
0.0
  0
LINE
  8
0
 62
0
 10
-48.6869861313
 20
3.539848874
 30
0.0
 11
-44.1635894567
 21
3.539848874
 31
0.0
  0
LINE
  8
0
 62
0
 10
-61.9135894567
 20
9.7096953374
 30
0.0
 11
-62.1635894567
 21
9.7096953374
 31
0.0
  0
LINE
  8
0
 62
0
 10
-54.9901927821
 20
-2.2502278943
 30
0.0
 11
-50.0869861313
 21
-2.2502278943
 31
0.0
  0
LINE
  8
0
 62
0
 10
-54.9901927821
 20
16.7497721057
 30
0.0
 11
-54.9901927821
 21
16.4997721057
 31
0.0
  0
ARC
  8
0
 62
0
 10
-61.7380381541
 20
15.4579081231
 30
0.0
 40
6.941047614040167
 50
-1.4234623878001407
 51
3.9632509885000236
  0
ARC
  8
0
 62
0
 10
-54.8135894567
 20
15.3376499469
 30
0.0
 40
0.5999999999999943
 50
90.0
 51
-180.0
  0
ARC
  8
0
 62
0
 10
-54.8135894567
 20
-1.0881057355
 30
0.0
 40
0.6000000000000085
 50
-180.0
 51
-90.0
  0
ARC
  8
0
 62
0
 10
-50.1230536895
 20
17.1045806367
 30
0.0
 40
1.8256920451303331
 50
-94.86964674429991
 51
-75.423892965
  0
LINE
  8
0
 62
0
 10
-61.9135894567
 20
4.539848874
 30
0.0
 11
-62.1635894567
 21
4.539848874
 31
0.0
  0
ARC
  8
0
 62
0
 10
-54.9541188538
 20
17.1047316474
 30
0.0
 40
1.8258397988274728
 50
-104.57510790679993
 51
-85.13059110990004
  0
ARC
  8
0
 62
0
 10
-54.9460125641
 20
12.7719662943
 30
0.0
 40
2.1395002252361563
 50
-102.62358315960002
 51
-85.66861407680003
  0
ARC
  8
0
 62
0
 10
-44.3814378828
 20
4.854980552
 30
0.0
 40
0.6000000000000014
 50
-90.0
 51
-0.0
  0
LINE
  8
0
 62
0
 10
-60.9135894567
 20
3.539848874
 30
0.0
 11
-56.3901927821
 21
3.539848874
 31
0.0
  0
LINE
  8
0
 62
0
 10
-49.0869861313
 20
-1.2502278943
 30
0.0
 11
-49.0869861313
 21
3.139848874
 31
0.0
  0
ARC
  8
0
 62
0
 10
-46.8658352904
 20
9.5529356573
 30
0.0
 40
2.155149601911231
 50
167.16941685899997
 51
-175.98775915519997
  0
ARC
  8
0
 62
0
 10
-46.8805567348
 20
4.7224809964
 30
0.0
 40
2.1348494060110994
 50
175.66089780619996
 51
-167.350563531
  0
LINE
  8
0
 62
0
 10
-50.0869861313
 20
-2.2502278943
 30
0.0
 11
-50.0869861313
 21
-2.5002278943
 31
0.0
  0
ARC
  8
0
 62
0
 10
-42.6082296532
 20
9.5392719971
 30
0.0
 40
1.8311537570379315
 50
165.16750787350003
 51
-175.43249767400005
  0
LINE
  8
0
 62
0
 10
-48.6869861313
 20
10.9596953374
 30
0.0
 11
-48.6869861313
 21
10.7096953374
 31
0.0
  0
ARC
  8
0
 62
0
 10
-44.2611715886
 20
-2.0422140576
 30
0.0
 40
6.91385839533584
 50
86.02120564139997
 51
91.42899833130001
  0
LINE
  8
0
 62
0
 10
-48.6869861313
 20
3.289848874
 30
0.0
 11
-48.6869861313
 21
3.539848874
 31
0.0
  0
ARC
  8
0
 62
0
 10
-54.9541188538
 20
-2.855187436
 30
0.0
 40
1.8258397988275619
 50
85.13059110990005
 51
104.57510790680011
  0
ARC
  8
0
 62
0
 10
-42.6136017525
 20
4.7144829078
 30
0.0
 40
1.8265779475392023
 50
175.13178041139994
 51
-165.4298833529
  0
ARC
  8
0
 62
0
 10
-62.4325638433
 20
4.7145105392
 30
0.0
 40
1.8272225192957208
 50
-14.565758418000009
 51
4.867179669900045
  0
ARC
  8
0
 62
0
 10
-50.1310087277
 20
12.8095608904
 30
0.0
 40
2.12996280634284
 50
-94.34722799230002
 51
-77.32329850449999
  0
LINE
  8
0
 62
0
 10
-48.8369861313
 20
3.139848874
 30
0.0
 11
-49.0869861313
 21
3.139848874
 31
0.0
  0
ARC
  8
0
 62
0
 10
-44.2611600695
 20
16.267121641
 30
0.0
 40
6.875832773285793
 50
-91.4368128219
 51
-85.99926208569998
  0
ARC
  8
0
 62
0
 10
-50.131124189
 20
1.4698237649
 30
0.0
 40
2.1369294683302713
 50
77.3621379081001
 51
94.3356490059
  0
ARC
  8
0
 62
0
 10
-60.664068911
 20
4.854980552
 30
0.0
 40
0.6000000000000085
 50
-180.0
 51
-90.0
  0
ARC
  8
0
 62
0
 10
-60.664068911
 20
9.3841844419
 30
0.0
 40
0.5999999999999943
 50
90.0
 51
-180.0
  0
ARC
  8
0
 62
0
 10
-62.4317380783
 20
9.5246891031
 30
0.0
 40
1.8264145891467563
 50
-4.868482937799987
 51
14.571221225800038
  0
ARC
  8
0
 62
0
 10
-61.7380381541
 20
-1.2083639117
 30
0.0
 40
6.941047614034857
 50
-3.9632509885000236
 51
1.4234623878001407
  0
ARC
  8
0
 62
0
 10
-50.2635894567
 20
15.3376499469
 30
0.0
 40
0.6000000000000156
 50
-0.0
 51
90.0
  0
ARC
  8
0
 62
0
 10
-48.6869861313
 20
3.139848874
 30
0.0
 40
0.14999999999999147
 50
90.0
 51
-180.0
  0
ARC
  8
0
 62
0
 10
-44.1635894567
 20
9.7096953374
 30
0.0
 40
1.0000000000000142
 50
-0.0
 51
90.0
  0
ARC
  8
0
 62
0
 10
-50.0869861313
 20
-1.2502278943
 30
0.0
 40
1.0
 50
-90.0
 51
-0.0
  0
ARC
  8
0
 62
0
 10
-58.1962490214
 20
4.7224749566
 30
0.0
 40
2.1344839846474115
 50
-12.651471770099988
 51
4.3397091954000215
  0
ARC
  8
0
 62
0
 10
-54.9901927821
 20
15.4997721057
 30
0.0
 40
1.2500000000000107
 50
90.0
 51
-180.0
  0
ARC
  8
0
 62
0
 10
-56.3901927821
 20
11.1096953374
 30
0.0
 40
0.14999999999999858
 50
-90.0
 51
-0.0
  0
ARC
  8
0
 62
0
 10
-60.9135894567
 20
4.539848874
 30
0.0
 40
0.9999999999999929
 50
-180.0
 51
-90.0
  0
ARC
  8
0
 62
0
 10
-54.9901927821
 20
-1.2502278943
 30
0.0
 40
0.9999999999999929
 50
180.0
 51
-90.0
  0
ARC
  8
0
 62
0
 10
-58.1930867163
 20
9.5167414172
 30
0.0
 40
2.131387302652444
 50
-4.344857304099887
 51
12.668742737300045
  0
ARC
  8
0
 62
0
 10
-48.6869861313
 20
11.1096953374
 30
0.0
 40
0.14999999999999858
 50
-180.0
 51
-90.0
  0
ARC
  8
0
 62
0
 10
-54.9901927821
 20
15.4997721057
 30
0.0
 40
1.000000000000007
 50
90.0
 51
-180.0
  0
ARC
  8
0
 62
0
 10
-56.3901927821
 20
11.1096953374
 30
0.0
 40
0.4000000000000128
 50
-90.0
 51
-0.0
  0
ARC
  8
0
 62
0
 10
-50.0869861313
 20
15.4997721057
 30
0.0
 40
1.25
 50
-0.0
 51
90.0
  0
ARC
  8
0
 62
0
 10
-54.9901927821
 20
-1.2502278943
 30
0.0
 40
1.250000000000007
 50
180.0
 51
-90.0
  0
ARC
  8
0
 62
0
 10
-50.0869861313
 20
15.4997721057
 30
0.0
 40
1.000000000000007
 50
-0.0
 51
90.0
  0
ARC
  8
0
 62
0
 10
-60.9135894567
 20
4.539848874
 30
0.0
 40
1.25
 50
-180.0
 51
-90.0
  0
ARC
  8
0
 62
0
 10
-50.0869861313
 20
-1.2502278943
 30
0.0
 40
1.25
 50
-90.0
 51
-0.0
  0
ARC
  8
0
 62
0
 10
-44.1635894567
 20
4.539848874
 30
0.0
 40
1.0000000000000213
 50
-90.0
 51
-0.0
  0
ARC
  8
0
 62
0
 10
-48.6869861313
 20
11.1096953374
 30
0.0
 40
0.3999999999999986
 50
-180.0
 51
-90.0
  0
ARC
  8
0
 62
0
 10
-44.1635894567
 20
9.7096953374
 30
0.0
 40
1.2500000000000213
 50
-0.0
 51
90.0
  0
ARC
  8
0
 62
0
 10
-60.9135894567
 20
9.7096953374
 30
0.0
 40
0.9999999999999947
 50
90.0
 51
-180.0
  0
ARC
  8
0
 62
0
 10
-60.9135894567
 20
9.7096953374
 30
0.0
 40
1.25
 50
90.0
 51
-180.0
  0
ARC
  8
0
 62
0
 10
-56.3901927821
 20
3.139848874
 30
0.0
 40
0.1500000000000199
 50
-0.0
 51
90.0
  0
ARC
  8
0
 62
0
 10
-56.3901927821
 20
3.139848874
 30
0.0
 40
0.3999999999999986
 50
-0.0
 51
90.0
  0
ARC
  8
0
 62
0
 10
-44.1635894567
 20
4.539848874
 30
0.0
 40
1.2500000000000213
 50
-90.0
 51
-0.0
  0
ARC
  8
0
 62
0
 10
-48.6869861313
 20
3.139848874
 30
0.0
 40
0.4000000000000017
 50
90.0
 51
-180.0
  0
ENDSEC
  0
EOF
