999
dxfrw 0.6.3
  0
SECTION
  2
HEADER
  9
$ACADVER
  1
AC1021
  9
$DWGCODEPAGE
  3
ANSI_1252
  9
$INSBASE
 10
0
 20
0
 30
0
  9
$EXTMIN
 10
-62.1635894567
 20
-2.500227894300007
 30
0
  9
$EXTMAX
 10
-42.91358945669998
 20
16.74977210570001
 30
0
  9
$LIMMIN
 10
0
 20
0
  9
$LIMMAX
 10
420
 20
297
  9
$ORTHOMODE
 70
    0
  9
$REGENMODE
 70
    1
  9
$FILLMODE
 70
    1
  9
$QTEXTMODE
 70
    0
  9
$MIRRTEXT
 70
    1
  9
$LTSCALE
 40
1
  9
$ATTMODE
 70
    1
  9
$TEXTSIZE
 40
3.5
  9
$TRACEWID
 40
1
  9
$TEXTSTYLE
  7
Standard
  9
$CLAYER
  8
0
  9
$CELTYPE
  6
ByLayer
  9
$CECOLOR
 62
  256
  9
$CELTSCALE
 40
1
  9
$DISPSILH
 70
    0
  9
$DIMSCALE
 40
1
  9
$DIMASZ
 40
3.302
  9
$DIMEXO
 40
0
  9
$DIMDLI
 40
3.75
  9
$DIMRND
 40
0
  9
$DIMDLE
 40
0
  9
$DIMEXE
 40
1
  9
$DIMTP
 40
0
  9
$DIMTM
 40
0
  9
$DIMTXT
 40
3.5
  9
$DIMCEN
 40
2.5
  9
$DIMTSZ
 40
0
  9
$DIMTOL
 70
    0
  9
$DIMLIM
 70
    0
  9
$DIMTIH
 70
    1
  9
$DIMTOH
 70
    1
  9
$DIMSE1
 70
    0
  9
$DIMSE2
 70
    0
  9
$DIMTAD
 70
    1
  9
$DIMZIN
 70
    1
  9
$DIMBLK
  1

  9
$DIMASO
 70
    1
  9
$DIMSHO
 70
    1
  9
$DIMPOST
  1

  9
$DIMAPOST
  1

  9
$DIMALT
 70
    0
  9
$DIMALTD
 70
    3
  9
$DIMALTF
 40
0.0393700787
  9
$DIMLFAC
 40
1
  9
$DIMTOFL
 70
    1
  9
$DIMTVP
 40
0
  9
$DIMTIX
 70
    0
  9
$DIMSOXD
 70
    0
  9
$DIMSAH
 70
    0
  9
$DIMBLK1
  1

  9
$DIMBLK2
  1

  9
$DIMSTYLE
  2
ISO-25
  9
$DIMCLRD
 70
    0
  9
$DIMCLRE
 70
    0
  9
$DIMCLRT
 70
    0
  9
$DIMTFAC
 40
1
  9
$DIMGAP
 40
1.524
  9
$DIMJUST
 70
    0
  9
$DIMSD1
 70
    0
  9
$DIMSD2
 70
    0
  9
$DIMTOLJ
 70
    0
  9
$DIMTZIN
 70
    1
  9
$DIMALTZ
 70
    0
  9
$DIMALTTZ
 70
    0
  9
$DIMUPT
 70
    0
  9
$DIMDEC
 70
    2
  9
$DIMTDEC
 70
    2
  9
$DIMALTU
 70
    2
  9
$DIMALTTD
 70
    3
  9
$DIMTXSTY
  7
Standard
  9
$DIMAUNIT
 70
    0
  9
$DIMADEC
 70
    0
  9
$DIMALTRND
 40
0
  9
$DIMAZIN
 70
    0
  9
$DIMDSEP
 70
   44
  9
$DIMATFIT
 70
    3
  9
$DIMFRAC
 70
    0
  9
$DIMLDRBLK
  1

  9
$DIMLUNIT
 70
    2
  9
$DIMLWD
 70
   -2
  9
$DIMLWE
 70
   -2
  9
$DIMTMOVE
 70
    0
  9
$DIMFXL
 40
1
  9
$DIMFXLON
 70
    0
  9
$DIMJOGANG
 40
0.7854
  9
$DIMTFILL
 70
    0
  9
$DIMTFILLCLR
 70
    0
  9
$DIMARCSYM
 70
    0
  9
$DIMLTYPE
  6

  9
$DIMLTEX1
  6

  9
$DIMLTEX2
  6

  9
$LUNITS
 70
    2
  9
$LUPREC
 70
    2
  9
$SKETCHINC
 40
1
  9
$FILLETRAD
 40
10
  9
$AUNITS
 70
    0
  9
$AUPREC
 70
    2
  9
$MENU
  1
.
  9
$ELEVATION
 40
0
  9
$PELEVATION
 40
0
  9
$THICKNESS
 40
0
  9
$LIMCHECK
 70
    0
  9
$CHAMFERA
 40
0
  9
$CHAMFERB
 40
0
  9
$CHAMFERC
 40
0
  9
$CHAMFERD
 40
0
  9
$SKPOLY
 70
    0
  9
$USRTIMER
 70
    1
  9
$ANGBASE
 50
0
  9
$ANGDIR
 70
    0
  9
$PDMODE
 70
    0
  9
$PDSIZE
 40
-1
  9
$PLINEWID
 40
0
  9
$SPLFRAME
 70
    0
  9
$SPLINETYPE
 70
    6
  9
$SPLINESEGS
 70
    8
  9
$HANDSEED
  5
20000
  9
$SURFTAB1
 70
    6
  9
$SURFTAB2
 70
    6
  9
$SURFTYPE
 70
    6
  9
$SURFU
 70
    6
  9
$SURFV
 70
    6
  9
$UCSBASE
  2

  9
$UCSNAME
  2

  9
$UCSORG
 10
0
 20
0
 30
0
  9
$UCSXDIR
 10
1
 20
0
 30
0
  9
$UCSYDIR
 10
0
 20
1
 30
0
  9
$UCSORTHOREF
  2

  9
$UCSORTHOVIEW
 70
    0
  9
$UCSORGTOP
 10
0
 20
0
 30
0
  9
$UCSORGBOTTOM
 10
0
 20
0
 30
0
  9
$UCSORGLEFT
 10
0
 20
0
 30
0
  9
$UCSORGRIGHT
 10
0
 20
0
 30
0
  9
$UCSORGFRONT
 10
0
 20
0
 30
0
  9
$UCSORGBACK
 10
0
 20
0
 30
0
  9
$PUCSBASE
  2

  9
$PUCSNAME
  2

  9
$PUCSORG
 10
0
 20
0
 30
0
  9
$PUCSXDIR
 10
1
 20
0
 30
0
  9
$PUCSYDIR
 10
0
 20
1
 30
0
  9
$PUCSORTHOREF
  2

  9
$PUCSORTHOVIEW
 70
    0
  9
$PUCSORGTOP
 10
0
 20
0
 30
0
  9
$PUCSORGBOTTOM
 10
0
 20
0
 30
0
  9
$PUCSORGLEFT
 10
0
 20
0
 30
0
  9
$PUCSORGRIGHT
 10
0
 20
0
 30
0
  9
$PUCSORGFRONT
 10
0
 20
0
 30
0
  9
$PUCSORGBACK
 10
0
 20
0
 30
0
  9
$USERI1
 70
    0
  9
$USERI2
 70
    0
  9
$USERI3
 70
    0
  9
$USERI4
 70
    0
  9
$USERI5
 70
    0
  9
$USERR1
 40
0
  9
$USERR2
 40
0
  9
$USERR3
 40
0
  9
$USERR4
 40
0
  9
$USERR5
 40
0
  9
$WORLDVIEW
 70
    1
  9
$SHADEDGE
 70
    3
  9
$SHADEDIF
 70
   70
  9
$TILEMODE
 70
    1
  9
$MAXACTVP
 70
   64
  9
$PINSBASE
 10
0
 20
0
 30
0
  9
$PLIMCHECK
 70
    0
  9
$PEXTMIN
 10
1e+020
 20
1e+020
 30
1e+020
  9
$PEXTMAX
 10
-1e+020
 20
-1e+020
 30
-1e+020
  9
$GRIDMODE
 70
    0
  9
$SNAPSTYLE
 70
    0
  9
$PLIMMIN
 10
0
 20
0
  9
$PLIMMAX
 10
420
 20
297
  9
$UNITMODE
 70
    0
  9
$VISRETAIN
 70
    1
  9
$PLINEGEN
 70
    0
  9
$PSLTSCALE
 70
    1
  9
$TREEDEPTH
 70
 3020
  9
$CMLSTYLE
  2
Standard
  9
$CMLJUST
 70
    0
  9
$CMLSCALE
 40
20
  9
$PROXYGRAPHICS
 70
    1
  9
$MEASUREMENT
 70
    1
  9
$CELWEIGHT
370
   -1
  9
$ENDCAPS
280
    0
  9
$JOINSTYLE
280
    0
  9
$LWDISPLAY
290
    1
  9
$INSUNITS
 70
    4
  9
$HYPERLINKBASE
  1

  9
$STYLESHEET
  1

  9
$XEDIT
290
    1
  9
$CEPSNTYPE
380
    0
  9
$PSTYLEMODE
290
    1
  9
$EXTNAMES
290
    1
  9
$PSVPSCALE
 40
0
  9
$OLESTARTUP
290
    0
  9
$SORTENTS
280
  127
  9
$INDEXCTL
280
    0
  9
$HIDETEXT
280
    1
  9
$XCLIPFRAME
290
    0
  9
$HALOGAP
280
    0
  9
$OBSCOLOR
 70
  257
  9
$OBSLTYPE
280
    0
  9
$INTERSECTIONDISPLAY
280
    0
  9
$INTERSECTIONCOLOR
 70
  257
  9
$DIMASSOC
280
    1
  9
$PROJECTNAME
  1

  9
$CAMERADISPLAY
290
    0
  9
$LENSLENGTH
 40
50
  9
$CAMERAHEIGHT
 40
0
  9
$STEPSPERSEC
 40
2
  9
$STEPSIZE
 40
50
  9
$3DDWFPREC
 40
2
  9
$PSOLWIDTH
 40
5
  9
$PSOLHEIGHT
 40
80
  9
$LOFTANG1
 40
1.570796326794897
  9
$LOFTANG2
 40
1.570796326794897
  9
$LOFTMAG1
 40
0
  9
$LOFTMAG2
 40
0
  9
$LOFTPARAM
 70
    7
  9
$LOFTNORMALS
280
    1
  9
$LATITUDE
 40
1
  9
$LONGITUDE
 40
1
  9
$NORTHDIRECTION
 40
0
  9
$TIMEZONE
 70
-8000
  9
$LIGHTGLYPHDISPLAY
280
    1
  9
$TILEMODELIGHTSYNCH
280
    1
  9
$SOLIDHIST
280
    1
  9
$SHOWHIST
280
    1
  9
$DWFFRAME
280
    2
  9
$DGNFRAME
280
    0
  9
$REALWORLDSCALE
290
    1
  9
$INTERFERECOLOR
 62
    1
  9
$CSHADOW
280
    0
  9
$SHADOWPLANELOCATION
 40
0
  0
ENDSEC
  0
SECTION
  2
CLASSES
  0
ENDSEC
  0
SECTION
  2
TABLES
  0
TABLE
  2
VPORT
  5
8
330
0
100
AcDbSymbolTable
 70
    1
  0
VPORT
  5
31
330
2
100
AcDbSymbolTableRecord
100
AcDbViewportTableRecord
  2
*ACTIVE
 70
    0
 10
0
 20
0
 11
1
 21
1
 12
3.364125131089055
 22
15.5343425170877
 13
0
 23
0
 14
10
 24
10
 15
10
 25
10
 16
0
 26
0
 36
1
 17
0
 27
0
 37
0
 40
53.03444324305099
 41
1.955223880597015
 42
50
 43
0
 44
0
 50
0
 51
0
 71
    0
 72
  100
 73
    1
 74
    3
 75
    0
 76
    0
 77
    0
 78
    0
281
    0
 65
    1
110
0
120
0
130
0
111
1
121
0
131
0
112
0
122
1
132
0
 79
    0
146
0
348
10020
 60
    7
 61
    5
292
1
282
    1
141
0
142
0
 63
  250
421
3358443
  0
ENDTAB
  0
TABLE
  2
LTYPE
  5
5
330
0
100
AcDbSymbolTable
 70
    4
  0
LTYPE
  5
14
330
5
100
AcDbSymbolTableRecord
100
AcDbLinetypeTableRecord
  2
ByBlock
 70
    0
  3

 72
   65
 73
    0
 40
0
  0
LTYPE
  5
15
330
5
100
AcDbSymbolTableRecord
100
AcDbLinetypeTableRecord
  2
ByLayer
 70
    0
  3

 72
   65
 73
    0
 40
0
  0
LTYPE
  5
16
330
5
100
AcDbSymbolTableRecord
100
AcDbLinetypeTableRecord
  2
Continuous
 70
    0
  3
Solid line
 72
   65
 73
    0
 40
0
  0
LTYPE
  5
32
330
5
100
AcDbSymbolTableRecord
100
AcDbLinetypeTableRecord
  2
DOT
 70
    0
  3
Dot . . . . . . . . . . . . . . . . . . . . . .
 72
   65
 73
    2
 40
6.35
 49
0
 74
    0
 49
-6.35
 74
    0
  0
LTYPE
  5
33
330
5
100
AcDbSymbolTableRecord
100
AcDbLinetypeTableRecord
  2
DOTTINY
 70
    0
  3
Dot (.15x) .....................................
 72
   65
 73
    2
 40
0.9525
 49
0
 74
    0
 49
-0.9525
 74
    0
  0
LTYPE
  5
34
330
5
100
AcDbSymbolTableRecord
100
AcDbLinetypeTableRecord
  2
DOT2
 70
    0
  3
Dot (.5x) .....................................
 72
   65
 73
    2
 40
3.175
 49
0
 74
    0
 49
-3.175
 74
    0
  0
LTYPE
  5
35
330
5
100
AcDbSymbolTableRecord
100
AcDbLinetypeTableRecord
  2
DOTX2
 70
    0
  3
Dot (2x) .  .  .  .  .  .  .  .  .  .  .  .  .
 72
   65
 73
    2
 40
12.7
 49
0
 74
    0
 49
-12.7
 74
    0
  0
LTYPE
  5
36
330
5
100
AcDbSymbolTableRecord
100
AcDbLinetypeTableRecord
  2
DASHED
 70
    0
  3
Dashed _ _ _ _ _ _ _ _ _ _ _ _ _ _ _ _ _
 72
   65
 73
    2
 40
19.05
 49
12.7
 74
    0
 49
-6.35
 74
    0
  0
LTYPE
  5
37
330
5
100
AcDbSymbolTableRecord
100
AcDbLinetypeTableRecord
  2
DASHEDTINY
 70
    0
  3
Dashed (.15x) _ _ _ _ _ _ _ _ _ _ _ _ _ _ _ _ _
 72
   65
 73
    2
 40
2.8575
 49
1.905
 74
    0
 49
-0.9525
 74
    0
  0
LTYPE
  5
38
330
5
100
AcDbSymbolTableRecord
100
AcDbLinetypeTableRecord
  2
DASHED2
 70
    0
  3
Dashed (.5x) _ _ _ _ _ _ _ _ _ _ _ _ _ _ _ _ _
 72
   65
 73
    2
 40
9.524999999999999
 49
6.35
 74
    0
 49
-3.175
 74
    0
  0
LTYPE
  5
39
330
5
100
AcDbSymbolTableRecord
100
AcDbLinetypeTableRecord
  2
DASHEDX2
 70
    0
  3
Dashed (2x) ____  ____  ____  ____  ____  ___
 72
   65
 73
    2
 40
38.09999999999999
 49
25.4
 74
    0
 49
-12.7
 74
    0
  0
LTYPE
  5
3A
330
5
100
AcDbSymbolTableRecord
100
AcDbLinetypeTableRecord
  2
DASHDOT
 70
    0
  3
Dash dot __ . __ . __ . __ . __ . __ . __ . __
 72
   65
 73
    4
 40
25.4
 49
12.7
 74
    0
 49
-6.35
 74
    0
 49
0
 74
    0
 49
-6.35
 74
    0
  0
LTYPE
  5
3B
330
5
100
AcDbSymbolTableRecord
100
AcDbLinetypeTableRecord
  2
DASHDOTTINY
 70
    0
  3
Dash dot (.15x) _._._._._._._._._._._._._._._.
 72
   65
 73
    4
 40
3.81
 49
1.905
 74
    0
 49
-0.9525
 74
    0
 49
0
 74
    0
 49
-0.9525
 74
    0
  0
LTYPE
  5
3C
330
5
100
AcDbSymbolTableRecord
100
AcDbLinetypeTableRecord
  2
DASHDOT2
 70
    0
  3
Dash dot (.5x) _._._._._._._._._._._._._._._.
 72
   65
 73
    4
 40
12.7
 49
6.35
 74
    0
 49
-3.175
 74
    0
 49
0
 74
    0
 49
-3.175
 74
    0
  0
LTYPE
  5
3D
330
5
100
AcDbSymbolTableRecord
100
AcDbLinetypeTableRecord
  2
DASHDOTX2
 70
    0
  3
Dash dot (2x) ____  .  ____  .  ____  .  ___
 72
   65
 73
    4
 40
50.8
 49
25.4
 74
    0
 49
-12.7
 74
    0
 49
0
 74
    0
 49
-12.7
 74
    0
  0
LTYPE
  5
3E
330
5
100
AcDbSymbolTableRecord
100
AcDbLinetypeTableRecord
  2
DIVIDE
 70
    0
  3
Divide ____ . . ____ . . ____ . . ____ . . ____
 72
   65
 73
    6
 40
31.75
 49
12.7
 74
    0
 49
-6.35
 74
    0
 49
0
 74
    0
 49
-6.35
 74
    0
 49
0
 74
    0
 49
-6.35
 74
    0
  0
LTYPE
  5
3F
330
5
100
AcDbSymbolTableRecord
100
AcDbLinetypeTableRecord
  2
DIVIDETINY
 70
    0
  3
Divide (.15x) __..__..__..__..__..__..__..__.._
 72
   65
 73
    6
 40
4.7625
 49
1.905
 74
    0
 49
-0.9525
 74
    0
 49
0
 74
    0
 49
-0.9525
 74
    0
 49
0
 74
    0
 49
-0.9525
 74
    0
  0
LTYPE
  5
40
330
5
100
AcDbSymbolTableRecord
100
AcDbLinetypeTableRecord
  2
DIVIDE2
 70
    0
  3
Divide (.5x) __..__..__..__..__..__..__..__.._
 72
   65
 73
    6
 40
15.875
 49
6.35
 74
    0
 49
-3.175
 74
    0
 49
0
 74
    0
 49
-3.175
 74
    0
 49
0
 74
    0
 49
-3.175
 74
    0
  0
LTYPE
  5
41
330
5
100
AcDbSymbolTableRecord
100
AcDbLinetypeTableRecord
  2
DIVIDEX2
 70
    0
  3
Divide (2x) ________  .  .  ________  .  .  _
 72
   65
 73
    6
 40
63.5
 49
25.4
 74
    0
 49
-12.7
 74
    0
 49
0
 74
    0
 49
-12.7
 74
    0
 49
0
 74
    0
 49
-12.7
 74
    0
  0
LTYPE
  5
42
330
5
100
AcDbSymbolTableRecord
100
AcDbLinetypeTableRecord
  2
BORDER
 70
    0
  3
Border __ __ . __ __ . __ __ . __ __ . __ __ .
 72
   65
 73
    6
 40
44.45
 49
12.7
 74
    0
 49
-6.35
 74
    0
 49
12.7
 74
    0
 49
-6.35
 74
    0
 49
0
 74
    0
 49
-6.35
 74
    0
  0
LTYPE
  5
43
330
5
100
AcDbSymbolTableRecord
100
AcDbLinetypeTableRecord
  2
BORDERTINY
 70
    0
  3
Border (.15x) __.__.__.__.__.__.__.__.__.__.__.
 72
   65
 73
    6
 40
6.6675
 49
1.905
 74
    0
 49
-0.9525
 74
    0
 49
1.905
 74
    0
 49
-0.9525
 74
    0
 49
0
 74
    0
 49
-0.9525
 74
    0
  0
LTYPE
  5
44
330
5
100
AcDbSymbolTableRecord
100
AcDbLinetypeTableRecord
  2
BORDER2
 70
    0
  3
Border (.5x) __.__.__.__.__.__.__.__.__.__.__.
 72
   65
 73
    6
 40
22.225
 49
6.35
 74
    0
 49
-3.175
 74
    0
 49
6.35
 74
    0
 49
-3.175
 74
    0
 49
0
 74
    0
 49
-3.175
 74
    0
  0
LTYPE
  5
45
330
5
100
AcDbSymbolTableRecord
100
AcDbLinetypeTableRecord
  2
BORDERX2
 70
    0
  3
Border (2x) ____  ____  .  ____  ____  .  ___
 72
   65
 73
    6
 40
88.89999999999999
 49
25.4
 74
    0
 49
-12.7
 74
    0
 49
25.4
 74
    0
 49
-12.7
 74
    0
 49
0
 74
    0
 49
-12.7
 74
    0
  0
LTYPE
  5
46
330
5
100
AcDbSymbolTableRecord
100
AcDbLinetypeTableRecord
  2
CENTER
 70
    0
  3
Center ____ _ ____ _ ____ _ ____ _ ____ _ ____
 72
   65
 73
    4
 40
50.8
 49
31.75
 74
    0
 49
-6.35
 74
    0
 49
6.35
 74
    0
 49
-6.35
 74
    0
  0
LTYPE
  5
47
330
5
100
AcDbSymbolTableRecord
100
AcDbLinetypeTableRecord
  2
CENTERTINY
 70
    0
  3
Center (.15x) ___ _ ___ _ ___ _ ___ _ ___ _ ___
 72
   65
 73
    4
 40
7.62
 49
4.7625
 74
    0
 49
-0.9525
 74
    0
 49
0.9525
 74
    0
 49
-0.9525
 74
    0
  0
LTYPE
  5
48
330
5
100
AcDbSymbolTableRecord
100
AcDbLinetypeTableRecord
  2
CENTER2
 70
    0
  3
Center (.5x) ___ _ ___ _ ___ _ ___ _ ___ _ ___
 72
   65
 73
    4
 40
28.575
 49
19.05
 74
    0
 49
-3.175
 74
    0
 49
3.175
 74
    0
 49
-3.175
 74
    0
  0
LTYPE
  5
49
330
5
100
AcDbSymbolTableRecord
100
AcDbLinetypeTableRecord
  2
CENTERX2
 70
    0
  3
Center (2x) ________  __  ________  __  _____
 72
   65
 73
    4
 40
101.6
 49
63.5
 74
    0
 49
-12.7
 74
    0
 49
12.7
 74
    0
 49
-12.7
 74
    0
  0
ENDTAB
  0
TABLE
  2
LAYER
  5
2
330
0
100
AcDbSymbolTable
 70
    1
  0
LAYER
  5
10
330
2
100
AcDbSymbolTableRecord
100
AcDbLayerTableRecord
  2
0
 70
    0
 62
    7
  6
CONTINUOUS
370
   -3
390
F
  0
ENDTAB
  0
TABLE
  2
STYLE
  5
3
330
0
100
AcDbSymbolTable
 70
    3
  0
STYLE
  5
4A
330
2
100
AcDbSymbolTableRecord
100
AcDbTextStyleTableRecord
  2
Standard
 70
    0
 40
0
 41
1
 50
0
 71
    0
 42
1
  3
txt
  4

  0
ENDTAB
  0
TABLE
  2
VIEW
  5
6
330
0
100
AcDbSymbolTable
 70
    0
  0
ENDTAB
  0
TABLE
  2
UCS
  5
7
330
0
100
AcDbSymbolTable
 70
    0
  0
ENDTAB
  0
TABLE
  2
APPID
  5
9
330
0
100
AcDbSymbolTable
 70
    1
  0
APPID
  5
12
330
9
100
AcDbSymbolTableRecord
100
AcDbRegAppTableRecord
  2
ACAD
 70
    0
  0
APPID
  5
4B
330
9
100
AcDbSymbolTableRecord
100
AcDbRegAppTableRecord
  2
LibreCad
 70
    0
  0
ENDTAB
  0
TABLE
  2
DIMSTYLE
  5
A
330
0
100
AcDbSymbolTable
 70
    1
100
AcDbDimStyleTable
 71
    1
  0
DIMSTYLE
105
4C
330
A
100
AcDbSymbolTableRecord
100
AcDbDimStyleTableRecord
  2
Standard
 70
    0
 40
1
 41
3.302
 42
0
 43
0.38
 44
1
 45
0
 46
0
 47
0
 48
0
 49
1
140
3.5
141
0.09
142
0
143
25.4
144
1
145
0
146
1
147
1.524
148
0
 71
    0
 72
    0
 73
    1
 74
    1
 75
    0
 76
    0
 77
    0
 78
    1
 79
    0
170
    0
171
    2
172
    0
173
    0
174
    0
175
    0
176
    0
177
    0
178
    0
179
    0
271
    2
272
    4
273
    2
274
    2
275
    0
276
    0
277
    2
278
   44
279
    0
280
    0
281
    0
282
    0
283
    1
284
    0
285
    0
286
    0
288
    0
289
    3
340
Standard
341

371
   -2
372
   -2
  0
ENDTAB
  0
TABLE
  2
BLOCK_RECORD
  5
1
330
0
100
AcDbSymbolTable
 70
    2
  0
BLOCK_RECORD
  5
1F
330
1
100
AcDbSymbolTableRecord
100
AcDbBlockTableRecord
  2
*Model_Space
 70
    0
280
    1
281
    0
  0
BLOCK_RECORD
  5
1E
330
1
100
AcDbSymbolTableRecord
100
AcDbBlockTableRecord
  2
*Paper_Space
 70
    0
280
    1
281
    0
  0
ENDTAB
  0
ENDSEC
  0
SECTION
  2
BLOCKS
  0
BLOCK
  5
20
330
1F
100
AcDbEntity
  8
0
100
AcDbBlockBegin
  2
*Model_Space
 70
    0
 10
0
 20
0
 30
0
  3
*Model_Space
  1

  0
ENDBLK
  5
21
330
1F
100
AcDbEntity
  8
0
100
AcDbBlockEnd
  0
BLOCK
  5
1C
330
1B
100
AcDbEntity
  8
0
100
AcDbBlockBegin
  2
*Paper_Space
 70
    0
 10
0
 20
0
 30
0
  3
*Paper_Space
  1

  0
ENDBLK
  5
1D
330
1F
100
AcDbEntity
  8
0
100
AcDbBlockEnd
  0
ENDSEC
  0
SECTION
  2
ENTITIES
  0
CIRCLE
  5
4D
100
AcDbEntity
  8
0
  6
CONTINUOUS
 62
    7
370
   25
100
AcDbCircle
 10
-52.537626626
 20
7.1247721057
 40
2.900964760476384
  0
SPLINE
  5
4E
100
AcDbEntity
  8
0
  6
CONTINUOUS
 62
    7
370
   25
100
AcDbSpline
210
0
220
0
230
0
 70
    8
 71
    3
 72
    8
 73
    4
 74
    0
 42
1e-007
 43
1e-007
 40
0
 40
0
 40
0
 40
0
 40
1
 40
1
 40
1
 40
1
 10
-54.79913253982356
 20
-1.035937531902003
 30
0
 10
-53.29232423814573
 20
-1.033459685957787
 30
0
 10
-51.78484404213309
 20
-1.033458183625896
 30
0
 10
-50.27803501313478
 20
-1.035934385006705
 30
0
  0
SPLINE
  5
4F
100
AcDbEntity
  8
0
  6
CONTINUOUS
 62
    7
370
   25
100
AcDbSpline
210
0
220
0
230
0
 70
    8
 71
    3
 72
    8
 73
    4
 74
    0
 42
1e-007
 43
1e-007
 40
0
 40
0
 40
0
 40
0
 40
1
 40
1
 40
1
 40
1
 10
-54.78448715245332
 20
3.60062679825764
 30
0
 10
-54.79348374950854
 20
2.054229867979253
 30
0
 10
-54.79660561829595
 20
0.5091324357992926
 30
0
 10
-54.79913253982356
 20
-1.035937531902003
 30
0
  0
SPLINE
  5
50
100
AcDbEntity
  8
0
  6
CONTINUOUS
 62
    7
370
   25
100
AcDbSpline
210
0
220
0
230
0
 70
    8
 71
    3
 72
   16
 73
   12
 74
    0
 42
1e-007
 43
1e-007
 40
0
 40
0
 40
0
 40
0
 40
0.2499999999999953
 40
0.2499999999999953
 40
0.4999999999999907
 40
0.4999999999999907
 40
0.624999999999992
 40
0.624999999999992
 40
0.7499999999999933
 40
0.7499999999999933
 40
1
 40
1
 40
1
 40
1
 10
-56.06788475266759
 20
4.883990962892682
 30
0
 10
-55.89823548387846
 20
4.884975623216731
 30
0
 10
-55.72917044446665
 20
4.852421164233006
 30
0
 10
-55.41867591952241
 20
4.726241703526121
 30
0
 10
-55.27443785591073
 20
4.63094694012569
 30
0
 10
-55.09633374980027
 20
4.452718277935131
 30
0
 10
-55.04209971424898
 20
4.386233309350252
 30
0
 10
-54.94939185143592
 20
4.245840595760569
 30
0
 10
-54.91039051551062
 20
4.17166145478534
 30
0
 10
-54.81535687646069
 20
3.937215324160435
 30
0
 10
-54.78350024925727
 20
3.770262502012482
 30
0
 10
-54.78448715245332
 20
3.600626798257636
 30
0
  0
SPLINE
  5
51
100
AcDbEntity
  8
0
  6
CONTINUOUS
 62
    7
370
   25
100
AcDbSpline
210
0
220
0
230
0
 70
    8
 71
    3
 72
    8
 73
    4
 74
    0
 42
1e-007
 43
1e-007
 40
0
 40
0
 40
0
 40
0
 40
1
 40
1
 40
1
 40
1
 10
-60.6119301760996
 20
4.869543389649297
 30
0
 10
-59.09768472787989
 20
4.872061757880742
 30
0
 10
-57.58343141696587
 20
4.875194587404388
 30
0
 10
-56.06788475266759
 20
4.883990962892683
 30
0
  0
SPLINE
  5
52
100
AcDbEntity
  8
0
  6
CONTINUOUS
 62
    7
370
   25
100
AcDbSpline
210
0
220
0
230
0
 70
    8
 71
    3
 72
    8
 73
    4
 74
    0
 42
1e-007
 43
1e-007
 40
0
 40
0
 40
0
 40
0
 40
1
 40
1
 40
1
 40
1
 10
-60.61191295317395
 20
9.36968340806029
 30
0
 10
-60.60941378063113
 20
7.869860125589701
 30
0
 10
-60.60942203073466
 20
6.369362766435758
 30
0
 10
-60.6119301760996
 20
4.869543389649296
 30
0
  0
SPLINE
  5
53
100
AcDbEntity
  8
0
  6
CONTINUOUS
 62
    7
370
   25
100
AcDbSpline
210
0
220
0
230
0
 70
    8
 71
    3
 72
    8
 73
    4
 74
    0
 42
1e-007
 43
1e-007
 40
0
 40
0
 40
0
 40
0
 40
1
 40
1
 40
1
 40
1
 10
-56.0678247511137
 20
9.35526877768574
 30
0
 10
-57.58336058321505
 20
9.364059228418931
 30
0
 10
-59.09765336756443
 20
9.367174056714584
 30
0
 10
-60.61191295317394
 20
9.36968340806029
 30
0
  0
SPLINE
  5
54
100
AcDbEntity
  8
0
  6
CONTINUOUS
 62
    7
370
   25
100
AcDbSpline
210
0
220
0
230
0
 70
    8
 71
    3
 72
   16
 73
   12
 74
    0
 42
1e-007
 43
1e-007
 40
0
 40
0
 40
0
 40
0
 40
0.2500000000000021
 40
0.2500000000000021
 40
0.5000000000000042
 40
0.5000000000000042
 40
0.6250000000000053
 40
0.6250000000000053
 40
0.7500000000000063
 40
0.7500000000000063
 40
1
 40
1
 40
1
 40
1
 10
-54.78442689240818
 20
10.63857667107839
 30
0
 10
-54.78343663251122
 20
10.46892762100425
 30
0
 10
-54.81598961550348
 20
10.29986102118758
 30
0
 10
-54.94218005476312
 20
9.989372583041062
 30
0
 10
-55.03748756953245
 20
9.845143206023925
 30
0
 10
-55.21573305894606
 20
9.667060569824194
 30
0
 10
-55.28222312409831
 20
9.612835070708979
 30
0
 10
-55.42262114474065
 20
9.520144428380839
 30
0
 10
-55.49680186606611
 20
9.481150880886887
 30
0
 10
-55.73124856494632
 20
9.386136067904832
 30
0
 10
-55.8981944844214
 20
9.354284883758172
 30
0
 10
-56.0678247511137
 20
9.355268777685739
 30
0
  0
SPLINE
  5
55
100
AcDbEntity
  8
0
  6
CONTINUOUS
 62
    7
370
   25
100
AcDbSpline
210
0
220
0
230
0
 70
    8
 71
    3
 72
    8
 73
    4
 74
    0
 42
1e-007
 43
1e-007
 40
0
 40
0
 40
0
 40
0
 40
1
 40
1
 40
1
 40
1
 10
-54.79913253982356
 20
15.28548174331428
 30
0
 10
-54.79659998060937
 20
13.73696464829871
 30
0
 10
-54.79347368653883
 20
12.18845265329854
 30
0
 10
-54.78442689240819
 20
10.63857667107839
 30
0
  0
SPLINE
  5
56
100
AcDbEntity
  8
0
  6
CONTINUOUS
 62
    7
370
   25
100
AcDbSpline
210
0
220
0
230
0
 70
    8
 71
    3
 72
    8
 73
    4
 74
    0
 42
1e-007
 43
1e-007
 40
0
 40
0
 40
0
 40
0
 40
1
 40
1
 40
1
 40
1
 10
-50.27803501313478
 20
15.28547859641897
 30
0
 10
-51.78484404213309
 20
15.28300239503817
 30
0
 10
-53.29232423814574
 20
15.28300389737006
 30
0
 10
-54.79913253982357
 20
15.28548174331428
 30
0
  0
SPLINE
  5
57
100
AcDbEntity
  8
0
  6
CONTINUOUS
 62
    7
370
   25
100
AcDbSpline
210
0
220
0
230
0
 70
    8
 71
    3
 72
    8
 73
    4
 74
    0
 42
1e-007
 43
1e-007
 40
0
 40
0
 40
0
 40
0
 40
1
 40
1
 40
1
 40
1
 10
-50.29246132476325
 20
10.68572600625459
 30
0
 10
-50.28364221493083
 20
12.21982584744042
 30
0
 10
-50.28054021484645
 20
13.75266830092888
 30
0
 10
-50.27803501313478
 20
15.28547859641897
 30
0
  0
SPLINE
  5
58
100
AcDbEntity
  8
0
  6
CONTINUOUS
 62
    7
370
   25
100
AcDbSpline
210
0
220
0
230
0
 70
    8
 71
    3
 72
   16
 73
   12
 74
    0
 42
1e-007
 43
1e-007
 40
0
 40
0
 40
0
 40
0
 40
0.2499999999999987
 40
0.2499999999999987
 40
0.4999999999999974
 40
0.4999999999999974
 40
0.6249999999999977
 40
0.6249999999999977
 40
0.7499999999999979
 40
0.7499999999999979
 40
1
 40
1
 40
1
 40
1
 10
-49.01570288892394
 20
9.40214071299035
 30
0
 10
-49.18481443039929
 20
9.402015579220544
 30
0
 10
-49.35317557090707
 20
9.435230932604931
 30
0
 10
-49.66216362842441
 20
9.562256880598255
 30
0
 10
-49.80557523483777
 20
9.657727394075039
 30
0
 10
-49.98262792818669
 20
9.835908111148486
 30
0
 10
-50.03652324368461
 20
9.902317141332009
 30
0
 10
-50.12861942803146
 20
10.04242059635015
 30
0
 10
-50.16736996406623
 20
10.11642494082857
 30
0
 10
-50.26179426347633
 20
10.3502682395958
 30
0
 10
-50.2934333298365
 20
10.51664399494044
 30
0
 10
-50.29246132476325
 20
10.6857260062546
 30
0
  0
SPLINE
  5
59
100
AcDbEntity
  8
0
  6
CONTINUOUS
 62
    7
370
   25
100
AcDbSpline
210
0
220
0
230
0
 70
    8
 71
    3
 72
    8
 73
    4
 74
    0
 42
1e-007
 43
1e-007
 40
0
 40
0
 40
0
 40
0
 40
1
 40
1
 40
1
 40
1
 10
-44.4335680435876
 20
9.393450728262845
 30
0
 10
-45.96047457642027
 20
9.398689984283804
 30
0
 10
-47.48739187797287
 20
9.403271583873362
 30
0
 10
-49.01570288892395
 20
9.402140712990349
 30
0
  0
SPLINE
  5
5A
100
AcDbEntity
  8
0
  6
CONTINUOUS
 62
    7
370
   25
100
AcDbSpline
210
0
220
0
230
0
 70
    8
 71
    3
 72
    8
 73
    4
 74
    0
 42
1e-007
 43
1e-007
 40
0
 40
0
 40
0
 40
0
 40
1
 40
1
 40
1
 40
1
 10
-44.43359035916561
 20
4.869494101616754
 30
0
 10
-44.4360953635947
 20
6.377254995263719
 30
0
 10
-44.43608466446269
 20
7.885694916349746
 30
0
 10
-44.4335680435876
 20
9.393450728262847
 30
0
  0
SPLINE
  5
5B
100
AcDbEntity
  8
0
  6
CONTINUOUS
 62
    7
370
   25
100
AcDbSpline
210
0
220
0
230
0
 70
    8
 71
    3
 72
    8
 73
    4
 74
    0
 42
1e-007
 43
1e-007
 40
0
 40
0
 40
0
 40
0
 40
1
 40
1
 40
1
 40
1
 10
-49.00928708846352
 20
4.884002102002657
 30
0
 10
-47.48320137512314
 20
4.87513908755653
 30
0
 10
-45.95837974036836
 20
4.872013521119642
 30
0
 10
-44.43359035916561
 20
4.869494101616754
 30
0
  0
SPLINE
  5
5C
100
AcDbEntity
  8
0
  6
CONTINUOUS
 62
    7
370
   25
100
AcDbSpline
210
0
220
0
230
0
 70
    8
 71
    3
 72
   16
 73
   12
 74
    0
 42
1e-007
 43
1e-007
 40
0
 40
0
 40
0
 40
0
 40
0.2499999999999976
 40
0.2499999999999976
 40
0.4999999999999951
 40
0.4999999999999951
 40
0.6249999999999939
 40
0.6249999999999939
 40
0.7499999999999927
 40
0.7499999999999927
 40
1
 40
1
 40
1
 40
1
 10
-50.29267424774157
 20
3.600637959301972
 30
0
 10
-50.29366111882145
 20
3.770287915288219
 30
0
 10
-50.26110640166981
 20
3.939354315247235
 30
0
 10
-50.13491999021726
 20
4.249846868279201
 30
0
 10
-50.03961849969224
 20
4.394081168477357
 30
0
 10
-49.86138136427348
 20
4.572176233674852
 30
0
 10
-49.79489390579914
 20
4.626406685063633
 30
0
 10
-49.65449842408425
 20
4.719107498646541
 30
0
 10
-49.58031839201024
 20
4.758105755843297
 30
0
 10
-49.34587139391709
 20
4.853132230464484
 30
0
 10
-49.17892109497649
 20
4.884987281692852
 30
0
 10
-49.00928708846352
 20
4.884002102002657
 30
0
  0
SPLINE
  5
5D
100
AcDbEntity
  8
0
  6
CONTINUOUS
 62
    7
370
   25
100
AcDbSpline
210
0
220
0
230
0
 70
    8
 71
    3
 72
    8
 73
    4
 74
    0
 42
1e-007
 43
1e-007
 40
0
 40
0
 40
0
 40
0
 40
1
 40
1
 40
1
 40
1
 10
-50.27803501313478
 20
-1.035934385006705
 30
0
 10
-50.28056026227605
 20
0.5091419513135326
 30
0
 10
-50.28367854646154
 20
2.054214766499468
 30
0
 10
-50.29267424774157
 20
3.600637959301972
 30
0
  0
SPLINE
  5
5E
100
AcDbEntity
  8
0
  6
CONTINUOUS
 62
    7
370
   25
100
AcDbSpline
210
0
220
0
230
0
 70
    8
 71
    3
 72
   14
 73
   10
 74
    0
 42
1e-007
 43
1e-007
 40
0
 40
0
 40
0
 40
0
 40
0.25
 40
0.25
 40
0.5
 40
0.5
 40
0.75
 40
0.75
 40
1
 40
1
 40
1
 40
1
 10
-57.35988044911819
 20
8.960482151762927
 30
0
 10
-57.31357596696057
 20
8.978471767559762
 30
0
 10
-57.26672105899669
 20
8.997951324834936
 30
0
 10
-57.1672751601226
 20
8.999340807561516
 30
0
 10
-57.11940189642515
 20
8.97796363687684
 30
0
 10
-57.04416138678458
 20
8.914507018824695
 30
0
 10
-57.0156333967636
 20
8.876096220309641
 30
0
 10
-56.96322583029465
 20
8.795853372123183
 30
0
 10
-56.93944034632724
 20
8.753952244222589
 30
0
 10
-56.91550746026354
 20
8.712156690423138
 30
0
  0
SPLINE
  5
5F
100
AcDbEntity
  8
0
  6
CONTINUOUS
 62
    7
370
   25
100
AcDbSpline
210
0
220
0
230
0
 70
    8
 71
    3
 72
   20
 73
   16
 74
    0
 42
1e-007
 43
1e-007
 40
0
 40
0
 40
0
 40
0
 40
0.0003885811408538
 40
0.0003885811408538
 40
0.0003885811408538
 40
0.0009887305943111001
 40
0.0009887305943111001
 40
0.0009887305943111001
 40
0.0015888543990844
 40
0.0015888543990844
 40
0.0015888543990844
 40
0.0018888997102419
 40
0.0018888997102419
 40
0.0018888997102419
 40
0.0031681321743853
 40
0.0031681321743853
 40
0.0031681321743853
 40
0.0031681321743853
 10
-60.09523688904684
 20
7.377079106954763
 30
0
 10
-59.98349503645579
 20
7.441829195434697
 30
0
 10
-59.87174551728389
 20
7.50657889241743
 30
0
 10
-59.75998741493338
 20
7.571328035358312
 30
0
 10
-59.58738117269226
 20
7.671330684081776
 30
0
 10
-59.41475421070231
 20
7.77133199630788
 30
0
 10
-59.2421020615428
 20
7.871330200433714
 30
0
 10
-59.0694573402574
 20
7.971324102417503
 30
0
 10
-58.89678708254551
 20
8.071315103167439
 30
0
 10
-58.72408598880292
 20
8.171300779077598
 30
0
 10
-58.63774013917234
 20
8.221290897554887
 30
0
 10
-58.55140023507273
 20
8.27130371624294
 30
0
 10
-58.46505299956439
 20
8.321316994534424
 30
0
 10
-58.09691895173546
 20
8.534544325719343
 30
0
 10
-57.72847008991701
 20
8.747477161995073
 30
0
 10
-57.35988044911818
 20
8.960482151762923
 30
0
  0
SPLINE
  5
60
100
AcDbEntity
  8
0
  6
CONTINUOUS
 62
    7
370
   25
100
AcDbSpline
210
0
220
0
230
0
 70
    8
 71
    3
 72
   14
 73
   10
 74
    0
 42
1e-007
 43
1e-007
 40
0
 40
0
 40
0
 40
0
 40
0.25
 40
0.25
 40
0.5
 40
0.5
 40
0.75
 40
0.75
 40
1
 40
1
 40
1
 40
1
 10
-60.08706241951113
 20
6.866147972196594
 30
0
 10
-60.12546156569304
 20
6.897142157454263
 30
0
 10
-60.16528540304055
 20
6.92789011026463
 30
0
 10
-60.21649823224895
 20
7.01269885541253
 30
0
 10
-60.2223821423013
 20
7.064508981363058
 30
0
 10
-60.20584899980488
 20
7.161523729144126
 30
0
 10
-60.18733479055038
 20
7.206071371009835
 30
0
 10
-60.14376955263751
 20
7.292641991838031
 30
0
 10
-60.11949209742456
 20
7.334928064669738
 30
0
 10
-60.09523688904684
 20
7.377079106954766
 30
0
  0
SPLINE
  5
61
100
AcDbEntity
  8
0
  6
CONTINUOUS
 62
    7
370
   25
100
AcDbSpline
210
0
220
0
230
0
 70
    8
 71
    3
 72
   23
 73
   19
 74
    0
 42
1e-007
 43
1e-007
 40
0
 40
0
 40
0
 40
0
 40
8.87004373625e-005
 40
8.87004373625e-005
 40
8.87004373625e-005
 40
0.0012887830756833
 40
0.0012887830756833
 40
0.0012887830756833
 40
0.0015888284777645
 40
0.0015888284777645
 40
0.0015888284777645
 40
0.002188952549814
 40
0.002188952549814
 40
0.002188952549814
 40
0.0027891021720126
 40
0.0027891021720126
 40
0.0027891021720126
 40
0.0031681419035828
 40
0.0031681419035828
 40
0.0031681419035828
 40
0.0031681419035828
 10
-57.35208337690834
 20
5.282056865054676
 30
0
 10
-57.37763783812819
 20
5.296832905506
 30
0
 10
-57.40319113947641
 20
5.311609391041308
 30
0
 10
-57.42874333306751
 20
5.326386244248185
 30
0
 10
-57.77444981582956
 20
5.526308569125274
 30
0
 10
-58.11995731574176
 20
5.726301835896709
 30
0
 10
-58.46532159159233
 20
5.926321747779038
 30
0
 10
-58.55167064356101
 20
5.976331349158222
 30
0
 10
-58.63801097937466
 20
6.026342898402582
 30
0
 10
-58.72434338168805
 20
6.07635593131587
 30
0
 10
-58.89701759759716
 20
6.176387449171567
 30
0
 10
-59.06970145785829
 20
6.276353725664089
 30
0
 10
-59.24233236507149
 20
6.376370642546022
 30
0
 10
-59.41497066776166
 20
6.476391844134659
 30
0
 10
-59.58755439853713
 20
6.576467282715355
 30
0
 10
-59.76011555181262
 20
6.676547200838299
 30
0
 10
-59.86910098574523
 20
6.739755246783354
 30
0
 10
-59.97807997637608
 20
6.802960795838862
 30
0
 10
-60.08706241951113
 20
6.866147972196591
 30
0
  0
SPLINE
  5
62
100
AcDbEntity
  8
0
  6
CONTINUOUS
 62
    7
370
   25
100
AcDbSpline
210
0
220
0
230
0
 70
    8
 71
    3
 72
   14
 73
   10
 74
    0
 42
1e-007
 43
1e-007
 40
0
 40
0
 40
0
 40
0
 40
0.25
 40
0.25
 40
0.5
 40
0.5
 40
0.75
 40
0.75
 40
1
 40
1
 40
1
 40
1
 10
-56.91592794331461
 20
5.544580480431241
 30
0
 10
-56.92334331603641
 20
5.495678411020773
 30
0
 10
-56.92981723798952
 20
5.445534448825386
 30
0
 10
-56.97729021032865
 20
5.358811095701833
 30
0
 10
-57.01903930269219
 20
5.327851200983363
 30
0
 10
-57.1109440779534
 20
5.293488535746682
 30
0
 10
-57.158630598827
 20
5.287496380287151
 30
0
 10
-57.25502651550514
 20
5.282121783781839
 30
0
 10
-57.30361606862967
 20
5.282056790454282
 30
0
 10
-57.35208337690834
 20
5.282056865054676
 30
0
  0
SPLINE
  5
63
100
AcDbEntity
  8
0
  6
CONTINUOUS
 62
    7
370
   25
100
AcDbSpline
210
0
220
0
230
0
 70
    8
 71
    3
 72
    8
 73
    4
 74
    0
 42
1e-007
 43
1e-007
 40
0
 40
0
 40
0
 40
0
 40
1
 40
1
 40
1
 40
1
 10
-56.91550746026353
 20
8.712156690423132
 30
0
 10
-56.91850710463231
 20
7.656594753557705
 30
0
 10
-56.91864871400324
 20
6.600149609512675
 30
0
 10
-56.9159279433146
 20
5.54458048043124
 30
0
  0
SPLINE
  5
64
100
AcDbEntity
  8
0
  6
CONTINUOUS
 62
    7
370
   25
100
AcDbSpline
210
0
220
0
230
0
 70
    8
 71
    3
 72
   14
 73
   10
 74
    0
 42
1e-007
 43
1e-007
 40
0
 40
0
 40
0
 40
0
 40
0.25
 40
0.25
 40
0.5
 40
0.5
 40
0.75
 40
0.75
 40
1
 40
1
 40
1
 40
1
 10
-54.37333667202202
 20
2.302518282553159
 30
0
 10
-54.39132628781887
 20
2.348822764710766
 30
0
 10
-54.41080584509395
 20
2.395677672674605
 30
0
 10
-54.4121953278207
 20
2.495123571548755
 30
0
 10
-54.39081815713591
 20
2.542996835246188
 30
0
 10
-54.32736153908383
 20
2.618237344886826
 30
0
 10
-54.28895074056872
 20
2.646765334907726
 30
0
 10
-54.20870789238231
 20
2.699172901376738
 30
0
 10
-54.16680676448168
 20
2.722958385344119
 30
0
 10
-54.12501121068224
 20
2.746891271407819
 30
0
  0
SPLINE
  5
65
100
AcDbEntity
  8
0
  6
CONTINUOUS
 62
    7
370
   25
100
AcDbSpline
210
0
220
0
230
0
 70
    8
 71
    3
 72
   20
 73
   16
 74
    0
 42
1e-007
 43
1e-007
 40
0
 40
0
 40
0
 40
0
 40
0.0003885811408539
 40
0.0003885811408539
 40
0.0003885811408539
 40
0.0009887305943112
 40
0.0009887305943112
 40
0.0009887305943112
 40
0.0015888543990843
 40
0.0015888543990843
 40
0.0015888543990843
 40
0.0018888997102419
 40
0.0018888997102419
 40
0.0018888997102419
 40
0.0031681321743853
 40
0.0031681321743853
 40
0.0031681321743853
 40
0.0031681321743853
 10
-52.78993362721383
 20
-0.432838157375481
 30
0
 10
-52.85468371569377
 20
-0.3210963047844164
 30
0
 10
-52.91943341267653
 20
-0.2093467856125082
 30
0
 10
-52.98418255561742
 20
-0.0975886832619841
 30
0
 10
-53.08418520434088
 20
0.0750175589791329
 30
0
 10
-53.18418651656698
 20
0.2476445209690831
 30
0
 10
-53.28418472069281
 20
0.4202966701285806
 30
0
 10
-53.38417862267659
 20
0.5929413914139551
 30
0
 10
-53.48416962342579
 20
0.7656116491262233
 30
0
 10
-53.58415529933664
 20
0.9383127428683872
 30
0
 10
-53.6341454178143
 20
1.024658592498795
 30
0
 10
-53.68415823650202
 20
1.110998496598634
 30
0
 10
-53.73417151479352
 20
1.197345732107004
 30
0
 10
-53.94739884597845
 20
1.565479779935919
 30
0
 10
-54.16033168225418
 20
1.933928641754346
 30
0
 10
-54.37333667202202
 20
2.302518282553159
 30
0
  0
SPLINE
  5
66
100
AcDbEntity
  8
0
  6
CONTINUOUS
 62
    7
370
   25
100
AcDbSpline
210
0
220
0
230
0
 70
    8
 71
    3
 72
   14
 73
   10
 74
    0
 42
1e-007
 43
1e-007
 40
0
 40
0
 40
0
 40
0
 40
0.25
 40
0.25
 40
0.5
 40
0.5
 40
0.75
 40
0.75
 40
1
 40
1
 40
1
 40
1
 10
-52.27900249245563
 20
-0.4246636878396974
 30
0
 10
-52.30999667771286
 20
-0.4630628340211071
 30
0
 10
-52.34074463052207
 20
-0.5028866713674889
 30
0
 10
-52.42555337566935
 20
-0.5540995005769365
 30
0
 10
-52.47736350161841
 20
-0.559983410629919
 30
0
 10
-52.57437824939909
 20
-0.5434502681348486
 30
0
 10
-52.61892589126559
 20
-0.5249360588805474
 30
0
 10
-52.70549651209573
 20
-0.4813708209669886
 30
0
 10
-52.74778258492815
 20
-0.4570933657535761
 30
0
 10
-52.78993362721383
 20
-0.4328381573754717
 30
0
  0
SPLINE
  5
67
100
AcDbEntity
  8
0
  6
CONTINUOUS
 62
    7
370
   25
100
AcDbSpline
210
0
220
0
230
0
 70
    8
 71
    3
 72
   23
 73
   19
 74
    0
 42
1e-007
 43
1e-007
 40
0
 40
0
 40
0
 40
0
 40
8.87004373625e-005
 40
8.87004373625e-005
 40
8.87004373625e-005
 40
0.0012887830756833
 40
0.0012887830756833
 40
0.0012887830756833
 40
0.0015888284777645
 40
0.0015888284777645
 40
0.0015888284777645
 40
0.0021889525498141
 40
0.0021889525498141
 40
0.0021889525498141
 40
0.0027891021720127
 40
0.0027891021720127
 40
0.0027891021720127
 40
0.0031681419035828
 40
0.0031681419035828
 40
0.0031681419035828
 40
0.0031681419035828
 10
-50.69491138531377
 20
2.310315354763058
 30
0
 10
-50.7096874257651
 20
2.284760893543194
 30
0
 10
-50.72446391130041
 20
2.259207592194964
 30
0
 10
-50.73924076450729
 20
2.233655398603863
 30
0
 10
-50.93916308938438
 20
1.887948915841815
 30
0
 10
-51.13915635615581
 20
1.542441415929605
 30
0
 10
-51.33917626803813
 20
1.197077140079036
 30
0
 10
-51.38918586941731
 20
1.110728088110362
 30
0
 10
-51.43919741866168
 20
1.024387752296727
 30
0
 10
-51.48921045157496
 20
0.9380553499833285
 30
0
 10
-51.58924196943067
 20
0.7653811340742163
 30
0
 10
-51.68920824592316
 20
0.5926972738130609
 30
0
 10
-51.78922516280513
 20
0.420066366599867
 30
0
 10
-51.8892463643938
 20
0.2474280639097029
 30
0
 10
-51.98932180297447
 20
0.07484433313419921
 30
0
 10
-52.08940172109741
 20
-0.0977168201413114
 30
0
 10
-52.15260976704244
 20
-0.2067022540738865
 30
0
 10
-52.21581531609793
 20
-0.3156812447046887
 30
0
 10
-52.27900249245564
 20
-0.4246636878396958
 30
0
  0
SPLINE
  5
68
100
AcDbEntity
  8
0
  6
CONTINUOUS
 62
    7
370
   25
100
AcDbSpline
210
0
220
0
230
0
 70
    8
 71
    3
 72
   14
 73
   10
 74
    0
 42
1e-007
 43
1e-007
 40
0
 40
0
 40
0
 40
0
 40
0.25
 40
0.25
 40
0.5
 40
0.5
 40
0.75
 40
0.75
 40
1
 40
1
 40
1
 40
1
 10
-50.9574350006904
 20
2.746470788356789
 30
0
 10
-50.90853293127994
 20
2.739055415635016
 30
0
 10
-50.85838896908464
 20
2.732581493681922
 30
0
 10
-50.77166561596098
 20
2.685108521342827
 30
0
 10
-50.74070572124249
 20
2.643359428979303
 30
0
 10
-50.70634305600588
 20
2.551454653718043
 30
0
 10
-50.70035090054628
 20
2.503768132844457
 30
0
 10
-50.69497630404094
 20
2.407372216166286
 30
0
 10
-50.69491131071337
 20
2.358782663041746
 30
0
 10
-50.69491138531377
 20
2.310315354763063
 30
0
  0
SPLINE
  5
69
100
AcDbEntity
  8
0
  6
CONTINUOUS
 62
    7
370
   25
100
AcDbSpline
210
0
220
0
230
0
 70
    8
 71
    3
 72
    8
 73
    4
 74
    0
 42
1e-007
 43
1e-007
 40
0
 40
0
 40
0
 40
0
 40
1
 40
1
 40
1
 40
1
 10
-54.12501121068223
 20
2.74689127140782
 30
0
 10
-53.06944927381682
 20
2.743891627039065
 30
0
 10
-52.01300412977182
 20
2.743750017668153
 30
0
 10
-50.9574350006904
 20
2.746470788356787
 30
0
  0
SPLINE
  5
6A
100
AcDbEntity
  8
0
  6
CONTINUOUS
 62
    7
370
   25
100
AcDbSpline
210
0
220
0
230
0
 70
    8
 71
    3
 72
   14
 73
   10
 74
    0
 42
1e-007
 43
1e-007
 40
0
 40
0
 40
0
 40
0
 40
0.25
 40
0.25
 40
0.5
 40
0.5
 40
0.75
 40
0.75
 40
1
 40
1
 40
1
 40
1
 10
-47.71537280281233
 20
5.289062059649329
 30
0
 10
-47.76167728496992
 20
5.271072443852495
 30
0
 10
-47.80853219293385
 20
5.25159288657734
 30
0
 10
-47.90797809180789
 20
5.250203403850728
 30
0
 10
-47.95585135550537
 20
5.271580574535417
 30
0
 10
-48.03109186514595
 20
5.335037192587561
 30
0
 10
-48.05961985516682
 20
5.373447991102679
 30
0
 10
-48.11202742163593
 20
5.453690839289024
 30
0
 10
-48.1358129056033
 20
5.495591967189667
 30
0
 10
-48.15974579166698
 20
5.537387520989126
 30
0
  0
SPLINE
  5
6B
100
AcDbEntity
  8
0
  6
CONTINUOUS
 62
    7
370
   25
100
AcDbSpline
210
0
220
0
230
0
 70
    8
 71
    3
 72
   20
 73
   16
 74
    0
 42
1e-007
 43
1e-007
 40
0
 40
0
 40
0
 40
0
 40
0.000388581140854
 40
0.000388581140854
 40
0.000388581140854
 40
0.0009887305943113
 40
0.0009887305943113
 40
0.0009887305943113
 40
0.0015888543990845
 40
0.0015888543990845
 40
0.0015888543990845
 40
0.001888899710242
 40
0.001888899710242
 40
0.001888899710242
 40
0.0031681321743853
 40
0.0031681321743853
 40
0.0031681321743853
 40
0.0031681321743853
 10
-44.98001636288367
 20
6.872465104457524
 30
0
 10
-45.09175821547477
 20
6.807715015977561
 30
0
 10
-45.20350773464671
 20
6.74296531899479
 30
0
 10
-45.31526583699726
 20
6.678216176053881
 30
0
 10
-45.48787207923838
 20
6.578213527330419
 30
0
 10
-45.66049904122833
 20
6.478212215104335
 30
0
 10
-45.83315119038783
 20
6.378214010978501
 30
0
 10
-46.00579591167322
 20
6.278220108994722
 30
0
 10
-46.17846616938501
 20
6.178229108244689
 30
0
 10
-46.35116726312765
 20
6.078243432334651
 30
0
 10
-46.43751311275827
 20
6.028253313857405
 30
0
 10
-46.52385301685787
 20
5.978240495169305
 30
0
 10
-46.61020025236622
 20
5.9282272168778
 30
0
 10
-46.97833430019509
 20
5.714999885692844
 30
0
 10
-47.34678316201354
 20
5.502067049417171
 30
0
 10
-47.71537280281233
 20
5.289062059649335
 30
0
  0
SPLINE
  5
6C
100
AcDbEntity
  8
0
  6
CONTINUOUS
 62
    7
370
   25
100
AcDbSpline
210
0
220
0
230
0
 70
    8
 71
    3
 72
   14
 73
   10
 74
    0
 42
1e-007
 43
1e-007
 40
0
 40
0
 40
0
 40
0
 40
0.25
 40
0.25
 40
0.5
 40
0.5
 40
0.75
 40
0.75
 40
1
 40
1
 40
1
 40
1
 10
-44.98819083241943
 20
7.383396239215708
 30
0
 10
-44.9497916862376
 20
7.35240205395812
 30
0
 10
-44.90996784889031
 20
7.321654101147979
 30
0
 10
-44.85875501968167
 20
7.236845356000162
 30
0
 10
-44.85287110962923
 20
7.185035230049914
 30
0
 10
-44.8694042521254
 20
7.088020482268909
 30
0
 10
-44.88791846137985
 20
7.043472840403045
 30
0
 10
-44.93148369929288
 20
6.956902219574506
 30
0
 10
-44.95576115450589
 20
6.91461614674267
 30
0
 10
-44.98001636288368
 20
6.872465104457524
 30
0
  0
SPLINE
  5
6D
100
AcDbEntity
  8
0
  6
CONTINUOUS
 62
    7
370
   25
100
AcDbSpline
210
0
220
0
230
0
 70
    8
 71
    3
 72
   23
 73
   19
 74
    0
 42
1e-007
 43
1e-007
 40
0
 40
0
 40
0
 40
0
 40
8.87004373624e-005
 40
8.87004373624e-005
 40
8.87004373624e-005
 40
0.0012887830756833
 40
0.0012887830756833
 40
0.0012887830756833
 40
0.0015888284777645
 40
0.0015888284777645
 40
0.0015888284777645
 40
0.002188952549814
 40
0.002188952549814
 40
0.002188952549814
 40
0.0027891021720127
 40
0.0027891021720127
 40
0.0027891021720127
 40
0.0031681419035828
 40
0.0031681419035828
 40
0.0031681419035828
 40
0.0031681419035828
 10
-47.72316987502219
 20
8.967487346357577
 30
0
 10
-47.69761541380235
 20
8.952711305906254
 30
0
 10
-47.67206211245413
 20
8.937934820370948
 30
0
 10
-47.64650991886304
 20
8.923157967164071
 30
0
 10
-47.30080343610098
 20
8.72323564228698
 30
0
 10
-46.95529593618876
 20
8.523242375515556
 30
0
 10
-46.60993166033818
 20
8.323222463633224
 30
0
 10
-46.5235826083695
 20
8.273212862254042
 30
0
 10
-46.43724227255586
 20
8.223201313009675
 30
0
 10
-46.35090987024246
 20
8.173188280096388
 30
0
 10
-46.17823565433336
 20
8.073156762240695
 30
0
 10
-46.00555179407223
 20
7.97319048574817
 30
0
 10
-45.83292088685904
 20
7.873173568866235
 30
0
 10
-45.66028258416885
 20
7.773152367277582
 30
0
 10
-45.48769885339335
 20
7.673076928696882
 30
0
 10
-45.31513770011782
 20
7.572997010573932
 30
0
 10
-45.20615226618525
 20
7.509788964628902
 30
0
 10
-45.09717327555445
 20
7.446583415573411
 30
0
 10
-44.98819083241943
 20
7.383396239215704
 30
0
  0
SPLINE
  5
6E
100
AcDbEntity
  8
0
  6
CONTINUOUS
 62
    7
370
   25
100
AcDbSpline
210
0
220
0
230
0
 70
    8
 71
    3
 72
   14
 73
   10
 74
    0
 42
1e-007
 43
1e-007
 40
0
 40
0
 40
0
 40
0
 40
0.25
 40
0.25
 40
0.5
 40
0.5
 40
0.75
 40
0.75
 40
1
 40
1
 40
1
 40
1
 10
-48.15932530861593
 20
8.704963730980998
 30
0
 10
-48.15190993589414
 20
8.753865800391472
 30
0
 10
-48.14543601394107
 20
8.804009762586851
 30
0
 10
-48.09796304160191
 20
8.890733115710448
 30
0
 10
-48.05621394923834
 20
8.921693010428902
 30
0
 10
-47.96430917397713
 20
8.956055675665569
 30
0
 10
-47.91662265310355
 20
8.96204783112514
 30
0
 10
-47.82022673642538
 20
8.967422427630387
 30
0
 10
-47.77163718330088
 20
8.967487420957976
 30
0
 10
-47.7231698750222
 20
8.967487346357583
 30
0
  0
SPLINE
  5
6F
100
AcDbEntity
  8
0
  6
CONTINUOUS
 62
    7
370
   25
100
AcDbSpline
210
0
220
0
230
0
 70
    8
 71
    3
 72
    8
 73
    4
 74
    0
 42
1e-007
 43
1e-007
 40
0
 40
0
 40
0
 40
0
 40
1
 40
1
 40
1
 40
1
 10
-48.15974579166697
 20
5.537387520989129
 30
0
 10
-48.15674614729822
 20
6.592949457854548
 30
0
 10
-48.15660453792734
 20
7.649394601899568
 30
0
 10
-48.15932530861593
 20
8.704963730980998
 30
0
  0
SPLINE
  5
70
100
AcDbEntity
  8
0
  6
CONTINUOUS
 62
    7
370
   25
100
AcDbSpline
210
0
220
0
230
0
 70
    8
 71
    3
 72
   14
 73
   10
 74
    0
 42
1e-007
 43
1e-007
 40
0
 40
0
 40
0
 40
0
 40
0.25
 40
0.25
 40
0.5
 40
0.5
 40
0.75
 40
0.75
 40
1
 40
1
 40
1
 40
1
 10
-50.70191657990851
 20
11.94702592885905
 30
0
 10
-50.68392696411167
 20
11.90072144670143
 30
0
 10
-50.66444740683649
 20
11.85386653873755
 30
0
 10
-50.66305792410991
 20
11.75442063986345
 30
0
 10
-50.68443509479464
 20
11.70654737616602
 30
0
 10
-50.74789171284672
 20
11.6313068665254
 30
0
 10
-50.78630251136183
 20
11.60277887650452
 30
0
 10
-50.86654535954819
 20
11.55037131003546
 30
0
 10
-50.90844648744884
 20
11.52658582606811
 30
0
 10
-50.95024204124828
 20
11.50265294000441
 30
0
  0
SPLINE
  5
71
100
AcDbEntity
  8
0
  6
CONTINUOUS
 62
    7
370
   25
100
AcDbSpline
210
0
220
0
230
0
 70
    8
 71
    3
 72
   20
 73
   16
 74
    0
 42
1e-007
 43
1e-007
 40
0
 40
0
 40
0
 40
0
 40
0.000388581140854
 40
0.000388581140854
 40
0.000388581140854
 40
0.0009887305943113
 40
0.0009887305943113
 40
0.0009887305943113
 40
0.0015888543990846
 40
0.0015888543990846
 40
0.0015888543990846
 40
0.001888899710242
 40
0.001888899710242
 40
0.001888899710242
 40
0.0031681321743853
 40
0.0031681321743853
 40
0.0031681321743853
 40
0.0031681321743853
 10
-52.28531962471669
 20
14.6823823687877
 30
0
 10
-52.22056953623673
 20
14.57064051619661
 30
0
 10
-52.15581983925397
 20
14.45889099702468
 30
0
 10
-52.09107069631306
 20
14.34713289467413
 30
0
 10
-51.9910680475896
 20
14.17452665243301
 30
0
 10
-51.89106673536351
 20
14.00189969044306
 30
0
 10
-51.79106853123768
 20
13.82924754128355
 30
0
 10
-51.69107462925387
 20
13.65660281999812
 30
0
 10
-51.59108362850345
 20
13.48393256228647
 30
0
 10
-51.49109795259373
 20
13.31123146854357
 30
0
 10
-51.44110783411669
 20
13.22488561891289
 30
0
 10
-51.39109501542844
 20
13.13854571481344
 30
0
 10
-51.34108173713697
 20
13.05219847930513
 30
0
 10
-51.12785440595203
 20
12.68406443147626
 30
0
 10
-50.91492156967632
 20
12.31561556965785
 30
0
 10
-50.7019165799085
 20
11.94702592885906
 30
0
  0
SPLINE
  5
72
100
AcDbEntity
  8
0
  6
CONTINUOUS
 62
    7
370
   25
100
AcDbSpline
210
0
220
0
230
0
 70
    8
 71
    3
 72
   14
 73
   10
 74
    0
 42
1e-007
 43
1e-007
 40
0
 40
0
 40
0
 40
0
 40
0.25
 40
0.25
 40
0.5
 40
0.5
 40
0.75
 40
0.75
 40
1
 40
1
 40
1
 40
1
 10
-52.79625075947487
 20
14.67420789925195
 30
0
 10
-52.76525657421775
 20
14.7126070454332
 30
0
 10
-52.73450862140893
 20
14.7524308827792
 30
0
 10
-52.64969987626181
 20
14.80364371198899
 30
0
 10
-52.59788975031323
 20
14.80952762204212
 30
0
 10
-52.50087500253272
 20
14.7929944795475
 30
0
 10
-52.45632736066597
 20
14.77448027029324
 30
0
 10
-52.36975673983525
 20
14.73091503237946
 30
0
 10
-52.32747066700259
 20
14.70663757716592
 30
0
 10
-52.28531962471669
 20
14.68238236878769
 30
0
  0
SPLINE
  5
73
100
AcDbEntity
  8
0
  6
CONTINUOUS
 62
    7
370
   25
100
AcDbSpline
210
0
220
0
230
0
 70
    8
 71
    3
 72
   23
 73
   19
 74
    0
 42
1e-007
 43
1e-007
 40
0
 40
0
 40
0
 40
0
 40
8.87004373625e-005
 40
8.87004373625e-005
 40
8.87004373625e-005
 40
0.0012887830756833
 40
0.0012887830756833
 40
0.0012887830756833
 40
0.0015888284777645
 40
0.0015888284777645
 40
0.0015888284777645
 40
0.002188952549814
 40
0.002188952549814
 40
0.002188952549814
 40
0.0027891021720126
 40
0.0027891021720126
 40
0.0027891021720126
 40
0.0031681419035828
 40
0.0031681419035828
 40
0.0031681419035828
 40
0.0031681419035828
 10
-54.38034186661674
 20
11.93922885664916
 30
0
 10
-54.36556582616542
 20
11.96478331786902
 30
0
 10
-54.35078934063012
 20
11.99033661921725
 30
0
 10
-54.33601248742325
 20
12.01588881280834
 30
0
 10
-54.13609016254616
 20
12.36159529557039
 30
0
 10
-53.93609689577472
 20
12.7071027954826
 30
0
 10
-53.7360769838924
 20
13.05246707133317
 30
0
 10
-53.68606738251322
 20
13.13881612330185
 30
0
 10
-53.63605583326886
 20
13.22515645911549
 30
0
 10
-53.58604280035557
 20
13.31148886142888
 30
0
 10
-53.48601128249988
 20
13.48416307733799
 30
0
 10
-53.38604500600734
 20
13.65684693759911
 30
0
 10
-53.28602808912542
 20
13.82947784481232
 30
0
 10
-53.18600688753679
 20
14.00211614750252
 30
0
 10
-53.08593144895607
 20
14.174699878278
 30
0
 10
-52.98585153083312
 20
14.34726103155351
 30
0
 10
-52.92264348488808
 20
14.4562464654861
 30
0
 10
-52.85943793583258
 20
14.56522545611693
 30
0
 10
-52.79625075947487
 20
14.67420789925196
 30
0
  0
SPLINE
  5
74
100
AcDbEntity
  8
0
  6
CONTINUOUS
 62
    7
370
   25
100
AcDbSpline
210
0
220
0
230
0
 70
    8
 71
    3
 72
   14
 73
   10
 74
    0
 42
1e-007
 43
1e-007
 40
0
 40
0
 40
0
 40
0
 40
0.25
 40
0.25
 40
0.5
 40
0.5
 40
0.75
 40
0.75
 40
1
 40
1
 40
1
 40
1
 10
-54.11781825124012
 20
11.50307342305543
 30
0
 10
-54.16672032065061
 20
11.51048879577721
 30
0
 10
-54.216864282846
 20
11.51696271773033
 30
0
 10
-54.30358763596957
 20
11.56443569006942
 30
0
 10
-54.33454753068809
 20
11.60618478243298
 30
0
 10
-54.36891019592471
 20
11.69808955769423
 30
0
 10
-54.37490235138433
 20
11.7457760785678
 30
0
 10
-54.38027694788953
 20
11.84217199524597
 30
0
 10
-54.38034194121715
 20
11.8907615483705
 30
0
 10
-54.38034186661675
 20
11.93922885664917
 30
0
  0
SPLINE
  5
75
100
AcDbEntity
  8
0
  6
CONTINUOUS
 62
    7
370
   25
100
AcDbSpline
210
0
220
0
230
0
 70
    8
 71
    3
 72
    8
 73
    4
 74
    0
 42
1e-007
 43
1e-007
 40
0
 40
0
 40
0
 40
0
 40
1
 40
1
 40
1
 40
1
 10
-50.95024204124828
 20
11.5026529400044
 30
0
 10
-52.00580397811369
 20
11.50565258437316
 30
0
 10
-53.0622491221587
 20
11.50579419374406
 30
0
 10
-54.11781825124012
 20
11.50307342305543
 30
0
  0
SPLINE
  5
76
100
AcDbEntity
  8
0
  6
CONTINUOUS
 62
    7
370
   25
100
AcDbSpline
210
0
220
0
230
0
 70
    8
 71
    3
 72
    8
 73
    4
 74
    0
 42
1e-007
 43
1e-007
 40
0
 40
0
 40
0
 40
0
 40
1
 40
1
 40
1
 40
1
 10
-54.81358945671367
 20
15.93764994693128
 30
0
 10
-53.2971447708129
 20
15.93764994693128
 30
0
 10
-51.78003486337312
 20
15.93764994693128
 30
0
 10
-50.26358945671368
 20
15.93764994693128
 30
0
  0
SPLINE
  5
77
100
AcDbEntity
  8
0
  6
CONTINUOUS
 62
    7
370
   25
100
AcDbSpline
210
0
220
0
230
0
 70
    8
 71
    3
 72
    8
 73
    4
 74
    0
 42
1e-007
 43
1e-007
 40
0
 40
0
 40
0
 40
0
 40
1
 40
1
 40
1
 40
1
 10
-50.26358945671368
 20
-1.688105735519004
 30
0
 10
-51.78003486337312
 20
-1.688105735519004
 30
0
 10
-53.29714477081291
 20
-1.688105735519004
 30
0
 10
-54.81358945671368
 20
-1.688105735519004
 30
0
  0
SPLINE
  5
78
100
AcDbEntity
  8
0
  6
CONTINUOUS
 62
    7
370
   25
100
AcDbSpline
210
0
220
0
230
0
 70
    8
 71
    3
 72
    8
 73
    4
 74
    0
 42
1e-007
 43
1e-007
 40
0
 40
0
 40
0
 40
0
 40
1
 40
1
 40
1
 40
1
 10
-43.7814378828019
 20
9.408044228564306
 30
0
 10
-43.7814378828019
 20
7.890583771986046
 30
0
 10
-43.78143788280189
 20
6.372446046991323
 30
0
 10
-43.78143788280189
 20
4.854980551957092
 30
0
  0
SPLINE
  5
79
100
AcDbEntity
  8
0
  6
CONTINUOUS
 62
    7
370
   25
100
AcDbSpline
210
0
220
0
230
0
 70
    8
 71
    3
 72
    8
 73
    4
 74
    0
 42
1e-007
 43
1e-007
 40
0
 40
0
 40
0
 40
0
 40
1
 40
1
 40
1
 40
1
 10
-61.26406891096095
 20
4.854980551957091
 30
0
 10
-61.26406891096095
 20
6.364490170554513
 30
0
 10
-61.26406891096095
 20
7.874670951218016
 30
0
 10
-61.26406891096095
 20
9.38418444188251
 30
0
  0
SPLINE
  5
7A
100
AcDbEntity
  8
0
  6
CONTINUOUS
 62
    7
370
   25
100
AcDbSpline
210
0
220
0
230
0
 70
    8
 71
    3
 72
    8
 73
    4
 74
    0
 42
1e-007
 43
1e-007
 40
0
 40
0
 40
0
 40
0
 40
1
 40
1
 40
1
 40
1
 10
-55.41358945671367
 20
10.68418444188251
 30
0
 10
-55.41358945671367
 20
12.23628613611433
 30
0
 10
-55.41358945671367
 20
13.7869635771379
 30
0
 10
-55.41358945671367
 20
15.33764994693128
 30
0
  0
SPLINE
  5
7B
100
AcDbEntity
  8
0
  6
CONTINUOUS
 62
    7
370
   25
100
AcDbSpline
210
0
220
0
230
0
 70
    8
 71
    3
 72
    8
 73
    4
 74
    0
 42
1e-007
 43
1e-007
 40
0
 40
0
 40
0
 40
0
 40
1
 40
1
 40
1
 40
1
 10
-55.41358945671367
 20
-1.088105735519004
 30
0
 10
-55.41358945671367
 20
0.4591239574989342
 30
0
 10
-55.41358945671367
 20
2.006350409000725
 30
0
 10
-55.41358945671367
 20
3.55498055195709
 30
0
  0
SPLINE
  5
7C
100
AcDbEntity
  8
0
  6
CONTINUOUS
 62
    7
370
   25
100
AcDbSpline
210
0
220
0
230
0
 70
    8
 71
    3
 72
    8
 73
    4
 74
    0
 42
1e-007
 43
1e-007
 40
0
 40
0
 40
0
 40
0
 40
1
 40
1
 40
1
 40
1
 10
-49.66358945671367
 20
15.33764994693128
 30
0
 10
-49.66358945671367
 20
13.80272718783091
 30
0
 10
-49.66358945671367
 20
12.26780167127249
 30
0
 10
-49.66358945671367
 20
10.73151835441365
 30
0
  0
SPLINE
  5
7D
100
AcDbEntity
  8
0
  6
CONTINUOUS
 62
    7
370
   25
100
AcDbSpline
210
0
220
0
230
0
 70
    8
 71
    3
 72
    8
 73
    4
 74
    0
 42
1e-007
 43
1e-007
 40
0
 40
0
 40
0
 40
0
 40
1
 40
1
 40
1
 40
1
 10
-49.66358945671367
 20
3.554980551957091
 30
0
 10
-49.66358945671367
 20
2.006347697906351
 30
0
 10
-49.66358945671367
 20
0.4591245240764391
 30
0
 10
-49.66358945671367
 20
-1.088105735519004
 30
0
  0
SPLINE
  5
7E
100
AcDbEntity
  8
0
  6
CONTINUOUS
 62
    7
370
   25
100
AcDbSpline
210
0
220
0
230
0
 70
    8
 71
    3
 72
    8
 73
    4
 74
    0
 42
1e-007
 43
1e-007
 40
0
 40
0
 40
0
 40
0
 40
1
 40
1
 40
1
 40
1
 10
-48.96717287135814
 20
10.03152752651696
 30
0
 10
-47.43661810584721
 20
10.02369226333592
 30
0
 10
-45.90749119093437
 20
10.0158643096517
 30
0
 10
-44.37836638453521
 20
10.00803636676146
 30
0
  0
SPLINE
  5
7F
100
AcDbEntity
  8
0
  6
CONTINUOUS
 62
    7
370
   25
100
AcDbSpline
210
0
220
0
230
0
 70
    8
 71
    3
 72
    8
 73
    4
 74
    0
 42
1e-007
 43
1e-007
 40
0
 40
0
 40
0
 40
0
 40
1
 40
1
 40
1
 40
1
 10
-44.38143788280188
 20
4.254980551957091
 30
0
 10
-45.9083648319141
 20
4.254980551957091
 30
0
 10
-47.43529421599816
 20
4.254980551957091
 30
0
 10
-48.96358945671368
 20
4.254980551957091
 30
0
  0
SPLINE
  5
80
100
AcDbEntity
  8
0
  6
CONTINUOUS
 62
    7
370
   25
100
AcDbSpline
210
0
220
0
230
0
 70
    8
 71
    3
 72
    8
 73
    4
 74
    0
 42
1e-007
 43
1e-007
 40
0
 40
0
 40
0
 40
0
 40
1
 40
1
 40
1
 40
1
 10
-56.11358945671367
 20
4.254980551957091
 30
0
 10
-57.63131979774579
 20
4.254980551957091
 30
0
 10
-59.14769574423298
 20
4.254980551957091
 30
0
 10
-60.66406891096095
 20
4.254980551957091
 30
0
  0
SPLINE
  5
81
100
AcDbEntity
  8
0
  6
CONTINUOUS
 62
    7
370
   25
100
AcDbSpline
210
0
220
0
230
0
 70
    8
 71
    3
 72
    8
 73
    4
 74
    0
 42
1e-007
 43
1e-007
 40
0
 40
0
 40
0
 40
0
 40
1
 40
1
 40
1
 40
1
 10
-60.66406891096095
 20
9.98418444188251
 30
0
 10
-59.14769273025009
 20
9.98418444188251
 30
0
 10
-57.63131187914526
 20
9.98418444188251
 30
0
 10
-56.11358945671367
 20
9.98418444188251
 30
0
  0
SPLINE
  5
82
100
AcDbEntity
  8
0
  6
CONTINUOUS
 62
    7
370
   25
100
AcDbSpline
210
0
220
0
230
0
 70
    8
 71
    3
 72
   12
 73
    8
 74
    0
 42
1e-007
 43
1e-007
 40
0
 40
0
 40
0
 40
0
 40
0.500000000000002
 40
0.500000000000002
 40
0.750000000000001
 40
0.750000000000001
 40
1
 40
1
 40
1
 40
1
 10
-60.06329621405364
 20
7.340632382810798
 30
0
 10
-60.10449504003315
 20
7.268989519875476
 30
0
 10
-60.14909031059288
 20
7.198243981169871
 30
0
 10
-60.17604956747586
 20
7.076667993783865
 30
0
 10
-60.17445269517908
 20
7.031485011621641
 30
0
 10
-60.13035568786884
 20
6.959382698448505
 30
0
 10
-60.09544945509034
 20
6.933287568503169
 30
0
 10
-60.06334973621931
 20
6.907360721544907
 30
0
  0
SPLINE
  5
83
100
AcDbEntity
  8
0
  6
CONTINUOUS
 62
    7
370
   25
100
AcDbSpline
210
0
220
0
230
0
 70
    8
 71
    3
 72
   23
 73
   19
 74
    0
 42
1e-007
 43
1e-007
 40
0
 40
0
 40
0
 40
0
 40
1.63648786192e-005
 40
1.63648786192e-005
 40
1.63648786192e-005
 40
3.27143471276e-005
 40
3.27143471276e-005
 40
3.27143471276e-005
 40
4.93043615688e-005
 40
4.93043615688e-005
 40
4.93043615688e-005
 40
6.64376335072e-005
 40
6.64376335072e-005
 40
6.64376335072e-005
 40
7.74790227375e-005
 40
7.74790227375e-005
 40
7.74790227375e-005
 40
7.94793977552e-005
 40
7.94793977552e-005
 40
7.94793977552e-005
 40
7.94793977552e-005
 10
-60.06329587779449
 20
7.340632373264711
 30
0
 10
-60.06280501995627
 20
7.340617150267242
 30
0
 10
-60.0629779422134
 20
7.341274971810276
 30
0
 10
-60.06379309976816
 20
7.342543813028955
 30
0
 10
-60.06460782898217
 20
7.343811987509763
 30
0
 10
-60.06608449330736
 20
7.345723252242788
 30
0
 10
-60.06808819332932
 20
7.348108779439217
 30
0
 10
-60.07012175959171
 20
7.35052986421815
 30
0
 10
-60.07275032378188
 20
7.353501982734141
 30
0
 10
-60.07575405155895
 20
7.356780454547081
 30
0
 10
-60.07885518144359
 20
7.360165237613212
 30
0
 10
-60.08243746437747
 20
7.363965450618815
 30
0
 10
-60.08621360991746
 20
7.367878625169522
 30
0
 10
-60.08866628202853
 20
7.370420300002912
 30
0
 10
-60.09123348517574
 20
7.373044126322149
 30
0
 10
-60.0938319468556
 20
7.375665216189006
 30
0
 10
-60.09429889369471
 20
7.376136229341844
 30
0
 10
-60.09476737099331
 20
7.376607690454265
 30
0
 10
-60.09523688904687
 20
7.377079106954724
 30
0
  0
SPLINE
  5
84
100
AcDbEntity
  8
0
  6
CONTINUOUS
 62
    7
370
   25
100
AcDbSpline
210
0
220
0
230
0
 70
    8
 71
    3
 72
   12
 73
    8
 74
    0
 42
1e-007
 43
1e-007
 40
0
 40
0
 40
0
 40
0
 40
0.500000000000007
 40
0.500000000000007
 40
0.7500000000000034
 40
0.7500000000000034
 40
1
 40
1
 40
1
 40
1
 10
-45.01195703787688
 20
6.908911828601481
 30
0
 10
-44.97075821189743
 20
6.980554691537089
 30
0
 10
-44.9261629413373
 20
7.051300230243015
 30
0
 10
-44.89920368445463
 20
7.172876217629022
 30
0
 10
-44.90080055675153
 20
7.218059199790998
 30
0
 10
-44.94489756406199
 20
7.290161512964042
 30
0
 10
-44.97980379683815
 20
7.316256642911467
 30
0
 10
-45.01190351571123
 20
7.342183489867375
 30
0
  0
SPLINE
  5
85
100
AcDbEntity
  8
0
  6
CONTINUOUS
 62
    7
370
   25
100
AcDbSpline
210
0
220
0
230
0
 70
    8
 71
    3
 72
   23
 73
   19
 74
    0
 42
1e-007
 43
1e-007
 40
0
 40
0
 40
0
 40
0
 40
1.63648786192e-005
 40
1.63648786192e-005
 40
1.63648786192e-005
 40
3.27143471276e-005
 40
3.27143471276e-005
 40
3.27143471276e-005
 40
4.93043615688e-005
 40
4.93043615688e-005
 40
4.93043615688e-005
 40
6.64376335072e-005
 40
6.64376335072e-005
 40
6.64376335072e-005
 40
7.74790227375e-005
 40
7.74790227375e-005
 40
7.74790227375e-005
 40
7.94793977552e-005
 40
7.94793977552e-005
 40
7.94793977552e-005
 40
7.94793977552e-005
 10
-45.01195737413603
 20
6.908911838147562
 30
0
 10
-45.01244823197425
 20
6.908927061145031
 30
0
 10
-45.01227530971711
 20
6.908269239602014
 30
0
 10
-45.01146015216235
 20
6.907000398383337
 30
0
 10
-45.01064542294834
 20
6.905732223902528
 30
0
 10
-45.00916875862315
 20
6.903820959169498
 30
0
 10
-45.0071650586012
 20
6.901435431973073
 30
0
 10
-45.00513149233879
 20
6.899014347194143
 30
0
 10
-45.00250292814866
 20
6.89604222867813
 30
0
 10
-44.99949920037159
 20
6.89276375686519
 30
0
 10
-44.99639807048693
 20
6.889378973799059
 30
0
 10
-44.99281578755303
 20
6.885578760793483
 30
0
 10
-44.98903964201303
 20
6.881665586242786
 30
0
 10
-44.98658696990196
 20
6.879123911409407
 30
0
 10
-44.98401976675483
 20
6.876500085090089
 30
0
 10
-44.98142130507489
 20
6.873878995223329
 30
0
 10
-44.98095435823576
 20
6.873407982070506
 30
0
 10
-44.98048588093722
 20
6.872936520958014
 30
0
 10
-44.9800163628837
 20
6.872465104457527
 30
0
  0
SPLINE
  5
86
100
AcDbEntity
  8
0
  6
CONTINUOUS
 62
    7
370
   25
100
AcDbSpline
210
0
220
0
230
0
 70
    8
 71
    3
 72
   12
 73
    8
 74
    0
 42
1e-007
 43
1e-007
 40
0
 40
0
 40
0
 40
0
 40
0.5000000000000203
 40
0.5000000000000203
 40
0.7500000000000101
 40
0.7500000000000101
 40
1
 40
1
 40
1
 40
1
 10
-52.75348690306987
 20
-0.4008974823822762
 30
0
 10
-52.68184404013305
 20
-0.4420963083617752
 30
0
 10
-52.61109850142544
 20
-0.4866915789233631
 30
0
 10
-52.48952251403949
 20
-0.5136508358047173
 30
0
 10
-52.44433953187864
 20
-0.5120539635071983
 30
0
 10
-52.37223721870618
 20
-0.4679569561958253
 30
0
 10
-52.34614208876665
 20
-0.4330507234162347
 30
0
 10
-52.32021524180398
 20
-0.4009510045479296
 30
0
  0
SPLINE
  5
87
100
AcDbEntity
  8
0
  6
CONTINUOUS
 62
    7
370
   25
100
AcDbSpline
210
0
220
0
230
0
 70
    8
 71
    3
 72
   23
 73
   19
 74
    0
 42
1e-007
 43
1e-007
 40
0
 40
0
 40
0
 40
0
 40
1.63648786192e-005
 40
1.63648786192e-005
 40
1.63648786192e-005
 40
3.27143471276e-005
 40
3.27143471276e-005
 40
3.27143471276e-005
 40
4.93043615688e-005
 40
4.93043615688e-005
 40
4.93043615688e-005
 40
6.64376335072e-005
 40
6.64376335072e-005
 40
6.64376335072e-005
 40
7.74790227375e-005
 40
7.74790227375e-005
 40
7.74790227375e-005
 40
7.94793977553e-005
 40
7.94793977553e-005
 40
7.94793977553e-005
 40
7.94793977553e-005
 10
-52.75348689352379
 20
-0.4008971461231082
 30
0
 10
-52.75347167052632
 20
-0.400406288284894
 30
0
 10
-52.75412949206935
 20
-0.4005792105420417
 30
0
 10
-52.75539833328802
 20
-0.4013943680968015
 30
0
 10
-52.75666650776883
 20
-0.4022090973108021
 30
0
 10
-52.75857777250185
 20
-0.4036857616360003
 30
0
 10
-52.76096329969828
 20
-0.405689461657954
 30
0
 10
-52.76338438447721
 20
-0.4077230279203562
 30
0
 10
-52.76635650299321
 20
-0.4103515921105122
 30
0
 10
-52.76963497480615
 20
-0.4133553198875858
 30
0
 10
-52.77301975787228
 20
-0.4164564497722414
 30
0
 10
-52.77681997087788
 20
-0.4200387327061038
 30
0
 10
-52.78073314542858
 20
-0.423814878246106
 30
0
 10
-52.78327482026197
 20
-0.426267550357175
 30
0
 10
-52.78589864658128
 20
-0.4288347535043439
 30
0
 10
-52.78851973644805
 20
-0.4314332151842943
 30
0
 10
-52.78899074960088
 20
-0.4319001620234222
 30
0
 10
-52.78946221071337
 20
-0.4323686393219441
 30
0
 10
-52.78993362721386
 20
-0.4328381573754689
 30
0
  0
SPLINE
  5
88
100
AcDbEntity
  8
0
  6
CONTINUOUS
 62
    7
370
   25
100
AcDbSpline
210
0
220
0
230
0
 70
    8
 71
    3
 72
   12
 73
    8
 74
    0
 42
1e-007
 43
1e-007
 40
0
 40
0
 40
0
 40
0
 40
0.5000000000000193
 40
0.5000000000000193
 40
0.7500000000000097
 40
0.7500000000000097
 40
1
 40
1
 40
1
 40
1
 10
-52.32176634886066
 20
14.6504416937945
 30
0
 10
-52.39340921179573
 20
14.69164051977783
 30
0
 10
-52.4641547505062
 20
14.73623579033618
 30
0
 10
-52.58573073789219
 20
14.76319504721703
 30
0
 10
-52.6309137200526
 20
14.76159817491923
 30
0
 10
-52.70301603322484
 20
14.71750116760754
 30
0
 10
-52.72911116316904
 20
14.68259493483285
 30
0
 10
-52.75503801012654
 20
14.65049521596015
 30
0
  0
SPLINE
  5
89
100
AcDbEntity
  8
0
  6
CONTINUOUS
 62
    7
370
   25
100
AcDbSpline
210
0
220
0
230
0
 70
    8
 71
    3
 72
   23
 73
   19
 74
    0
 42
1e-007
 43
1e-007
 40
0
 40
0
 40
0
 40
0
 40
1.63648786192e-005
 40
1.63648786192e-005
 40
1.63648786192e-005
 40
3.27143471276e-005
 40
3.27143471276e-005
 40
3.27143471276e-005
 40
4.93043615688e-005
 40
4.93043615688e-005
 40
4.93043615688e-005
 40
6.64376335072e-005
 40
6.64376335072e-005
 40
6.64376335072e-005
 40
7.74790227375e-005
 40
7.74790227375e-005
 40
7.74790227375e-005
 40
7.94793977552e-005
 40
7.94793977552e-005
 40
7.94793977552e-005
 40
7.94793977552e-005
 10
-52.32176635840673
 20
14.65044135753533
 30
0
 10
-52.3217815814042
 20
14.64995049969712
 30
0
 10
-52.32112375986118
 20
14.65012342195426
 30
0
 10
-52.3198549186425
 20
14.65093857950902
 30
0
 10
-52.31858674416169
 20
14.65175330872303
 30
0
 10
-52.31667547942865
 20
14.65322997304821
 30
0
 10
-52.31428995223223
 20
14.65523367307016
 30
0
 10
-52.31186886745329
 20
14.65726723933256
 30
0
 10
-52.30889674893729
 20
14.65989580352271
 30
0
 10
-52.30561827712435
 20
14.66289953129979
 30
0
 10
-52.30223349405821
 20
14.66600066118444
 30
0
 10
-52.29843328105262
 20
14.66958294411831
 30
0
 10
-52.29452010650191
 20
14.6733590896583
 30
0
 10
-52.29197843166852
 20
14.67581176176936
 30
0
 10
-52.28935460534935
 20
14.67837896491667
 30
0
 10
-52.28673351548236
 20
14.6809774265964
 30
0
 10
-52.2862625023295
 20
14.68144437343549
 30
0
 10
-52.28579104121712
 20
14.68191285073412
 30
0
 10
-52.28531962471666
 20
14.68238236878769
 30
0
  0
SPLINE
  5
8A
100
AcDbEntity
  8
0
  6
CONTINUOUS
 62
    7
370
   25
100
AcDbSpline
210
0
220
0
230
0
 70
    8
 71
    3
 72
   23
 73
   19
 74
    0
 42
1e-007
 43
1e-007
 40
0
 40
0
 40
0
 40
0
 40
1.67518172962e-005
 40
1.67518172962e-005
 40
1.67518172962e-005
 40
3.35022524508e-005
 40
3.35022524508e-005
 40
3.35022524508e-005
 40
5.02746349501e-005
 40
5.02746349501e-005
 40
5.02746349501e-005
 40
6.70944735977e-005
 40
6.70944735977e-005
 40
6.70944735977e-005
 40
7.46013542899e-005
 40
7.46013542899e-005
 40
7.46013542899e-005
 40
7.82207272957e-005
 40
7.82207272957e-005
 40
7.82207272957e-005
 40
7.82207272957e-005
 10
-57.34261514452361
 20
8.916890412611261
 30
0
 10
-57.34214529699936
 20
8.916713301758701
 30
0
 10
-57.34208232622311
 20
8.917403446351607
 30
0
 10
-57.34243106836345
 20
8.918902858104536
 30
0
 10
-57.34277979448526
 20
8.920402200986013
 30
0
 10
-57.34354970612065
 20
8.922751836301543
 30
0
 10
-57.34467628696675
 20
8.92575591372311
 30
0
 10
-57.34580436259235
 20
8.928763977039999
 30
0
 10
-57.34732095432653
 20
8.93251069382872
 30
0
 10
-57.34910025902985
 20
8.93668589334631
 30
0
 10
-57.35088454456856
 20
8.940872780564996
 30
0
 10
-57.35298200812454
 20
8.945605543893343
 30
0
 10
-57.35521940514905
 20
8.950493597127672
 30
0
 10
-57.35622937853289
 20
8.952700091375853
 30
0
 10
-57.35727623841349
 20
8.954957190307464
 30
0
 10
-57.35834214940952
 20
8.957226451345445
 30
0
 10
-57.35885025684757
 20
8.958308181824407
 30
0
 10
-57.3593636875756
 20
8.959394820803766
 30
0
 10
-57.35988044911822
 20
8.960482151763037
 30
0
  0
SPLINE
  5
8B
100
AcDbEntity
  8
0
  6
CONTINUOUS
 62
    7
370
   25
100
AcDbSpline
210
0
220
0
230
0
 70
    8
 71
    3
 72
   23
 73
   19
 74
    0
 42
1e-007
 43
1e-007
 40
0
 40
0
 40
0
 40
0
 40
7.53495869792e-005
 40
7.53495869792e-005
 40
7.53495869792e-005
 40
0.0012759121446681
 40
0.0012759121446681
 40
0.0012759121446681
 40
0.0015760671992044
 40
0.0015760671992044
 40
0.0015760671992044
 40
0.0021763522082181
 40
0.0021763522082181
 40
0.0021763522082181
 40
0.0027766324391378
 40
0.0027766324391378
 40
0.0027766324391378
 40
0.0031518883830207
 40
0.0031518883830207
 40
0.0031518883830207
 40
0.0031518883830207
 10
-57.34261635534797
 20
8.916889846749264
 30
0
 10
-57.36432100902339
 20
8.904333558098314
 30
0
 10
-57.38602567458585
 20
8.89177843188223
 30
0
 10
-57.40773018493302
 20
8.879224167642995
 30
0
 10
-57.75354843729294
 20
8.679196908357614
 30
0
 10
-58.09920954024644
 20
8.47917272893865
 30
0
 10
-58.44461670852101
 20
8.278928105760892
 30
0
 10
-58.53097350143003
 20
8.228864050804276
 30
0
 10
-58.61732344108673
 20
8.178801251966881
 30
0
 10
-58.70367983118075
 20
8.128761959882752
 30
0
 10
-58.8763852390025
 20
8.02868764763913
 30
0
 10
-59.04906178275171
 20
7.928611225806983
 30
0
 10
-59.2217147205558
 20
7.828534971913822
 30
0
 10
-59.39436633258386
 20
7.728459486491219
 30
0
 10
-59.56699467950473
 20
7.628383960458016
 30
0
 10
-59.73960410979549
 20
7.528309906405315
 30
0
 10
-59.84750829182451
 20
7.46575012084381
 30
0
 10
-59.95540513688011
 20
7.403190853488712
 30
0
 10
-60.06329554133251
 20
7.340632363515006
 30
0
  0
SPLINE
  5
8C
100
AcDbEntity
  8
0
  6
CONTINUOUS
 62
    7
370
   25
100
AcDbSpline
210
0
220
0
230
0
 70
    8
 71
    3
 72
   23
 73
   19
 74
    0
 42
1e-007
 43
1e-007
 40
0
 40
0
 40
0
 40
0
 40
1.67518172962e-005
 40
1.67518172962e-005
 40
1.67518172962e-005
 40
3.35022524508e-005
 40
3.35022524508e-005
 40
3.35022524508e-005
 40
5.02746349501e-005
 40
5.02746349501e-005
 40
5.02746349501e-005
 40
6.709447359780001e-005
 40
6.709447359780001e-005
 40
6.709447359780001e-005
 40
7.46013542898e-005
 40
7.46013542898e-005
 40
7.46013542898e-005
 40
7.8220727296e-005
 40
7.8220727296e-005
 40
7.8220727296e-005
 40
7.8220727296e-005
 10
-47.73263810740689
 20
5.332653798801007
 30
0
 10
-47.73310795493114
 20
5.33283090965357
 30
0
 10
-47.73317092570741
 20
5.332140765060647
 30
0
 10
-47.73282218356707
 20
5.330641353307716
 30
0
 10
-47.73247345744527
 20
5.329142010426239
 30
0
 10
-47.73170354580987
 20
5.326792375110709
 30
0
 10
-47.73057696496377
 20
5.323788297689141
 30
0
 10
-47.72944888933817
 20
5.320780234372251
 30
0
 10
-47.72793229760396
 20
5.317033517583541
 30
0
 10
-47.72615299290064
 20
5.312858318065953
 30
0
 10
-47.72436870736193
 20
5.308671430847268
 30
0
 10
-47.72227124380592
 20
5.30393866751893
 30
0
 10
-47.72003384678139
 20
5.299050614284611
 30
0
 10
-47.71902387339755
 20
5.296844120036459
 30
0
 10
-47.71797701351703
 20
5.294587021104845
 30
0
 10
-47.71691110252091
 20
5.292317760066935
 30
0
 10
-47.71640299508277
 20
5.291236029587884
 30
0
 10
-47.7158895643548
 20
5.290149390608347
 30
0
 10
-47.71537280281218
 20
5.289062059648942
 30
0
  0
SPLINE
  5
8D
100
AcDbEntity
  8
0
  6
CONTINUOUS
 62
    7
370
   25
100
AcDbSpline
210
0
220
0
230
0
 70
    8
 71
    3
 72
   23
 73
   19
 74
    0
 42
1e-007
 43
1e-007
 40
0
 40
0
 40
0
 40
0
 40
7.53495869791e-005
 40
7.53495869791e-005
 40
7.53495869791e-005
 40
0.0012759121446679
 40
0.0012759121446679
 40
0.0012759121446679
 40
0.0015760671992042
 40
0.0015760671992042
 40
0.0015760671992042
 40
0.0021763522082179
 40
0.0021763522082179
 40
0.0021763522082179
 40
0.0027766324391376
 40
0.0027766324391376
 40
0.0027766324391376
 40
0.0031518883830207
 40
0.0031518883830207
 40
0.0031518883830207
 40
0.0031518883830207
 10
-47.73263689658254
 20
5.332654364662996
 30
0
 10
-47.71093224290716
 20
5.345210653313926
 30
0
 10
-47.68922757734474
 20
5.357765779529989
 30
0
 10
-47.6675230669976
 20
5.370320043769201
 30
0
 10
-47.32170481463768
 20
5.570347303054578
 30
0
 10
-46.97604371168413
 20
5.770371482473489
 30
0
 10
-46.63063654340962
 20
5.970616105651326
 30
0
 10
-46.54427975050062
 20
6.020680160607951
 30
0
 10
-46.4579298108438
 20
6.070742959445072
 30
0
 10
-46.37157342074993
 20
6.120782251529429
 30
0
 10
-46.19886801292844
 20
6.22085656377354
 30
0
 10
-46.02619146917894
 20
6.320932985605224
 30
0
 10
-45.85353853137483
 20
6.421009239498394
 30
0
 10
-45.68088691934678
 20
6.521084724920994
 30
0
 10
-45.50825857242591
 20
6.621160250954179
 30
0
 10
-45.33564914213515
 20
6.721234305006877
 30
0
 10
-45.22774496010609
 20
6.783794090568409
 30
0
 10
-45.11984811505045
 20
6.84635335792354
 30
0
 10
-45.011957710598
 20
6.908911847897273
 30
0
  0
SPLINE
  5
8E
100
AcDbEntity
  8
0
  6
CONTINUOUS
 62
    7
370
   25
100
AcDbSpline
210
0
220
0
230
0
 70
    8
 71
    3
 72
   23
 73
   19
 74
    0
 42
1e-007
 43
1e-007
 40
0
 40
0
 40
0
 40
0
 40
1.67518172962e-005
 40
1.67518172962e-005
 40
1.67518172962e-005
 40
3.35022524508e-005
 40
3.35022524508e-005
 40
3.35022524508e-005
 40
5.02746349501e-005
 40
5.02746349501e-005
 40
5.02746349501e-005
 40
6.709447359780001e-005
 40
6.709447359780001e-005
 40
6.709447359780001e-005
 40
7.46013542898e-005
 40
7.46013542898e-005
 40
7.46013542898e-005
 40
7.82207272956e-005
 40
7.82207272956e-005
 40
7.82207272956e-005
 40
7.82207272956e-005
 10
-54.32974493287036
 20
2.319783587147742
 30
0
 10
-54.3295678220178
 20
2.320253434671999
 30
0
 10
-54.3302579666107
 20
2.320316405448231
 30
0
 10
-54.33175737836363
 20
2.319967663307892
 30
0
 10
-54.33325672124511
 20
2.319618937186086
 30
0
 10
-54.33560635656067
 20
2.318849025550711
 30
0
 10
-54.33861043398223
 20
2.31772244470461
 30
0
 10
-54.34161849729912
 20
2.316594369079018
 30
0
 10
-54.34536521408786
 20
2.31507777734488
 30
0
 10
-54.34954041360545
 20
2.313298472641574
 30
0
 10
-54.35372730082414
 20
2.311514187102876
 30
0
 10
-54.35846006415243
 20
2.309416723546768
 30
0
 10
-54.36334811738675
 20
2.307179326522247
 30
0
 10
-54.36555461163489
 20
2.306169353138416
 30
0
 10
-54.36781171056657
 20
2.305122493258078
 30
0
 10
-54.37008097160473
 20
2.304056582262504
 30
0
 10
-54.37116270208381
 20
2.303548474824656
 30
0
 10
-54.3722493410629
 20
2.303035044096009
 30
0
 10
-54.37333667202211
 20
2.302518282553192
 30
0
  0
SPLINE
  5
8F
100
AcDbEntity
  8
0
  6
CONTINUOUS
 62
    7
370
   25
100
AcDbSpline
210
0
220
0
230
0
 70
    8
 71
    3
 72
   23
 73
   19
 74
    0
 42
1e-007
 43
1e-007
 40
0
 40
0
 40
0
 40
0
 40
7.53495869792e-005
 40
7.53495869792e-005
 40
7.53495869792e-005
 40
0.001275912144668
 40
0.001275912144668
 40
0.001275912144668
 40
0.0015760671992043
 40
0.0015760671992043
 40
0.0015760671992043
 40
0.002176352208218
 40
0.002176352208218
 40
0.002176352208218
 40
0.0027766324391377
 40
0.0027766324391377
 40
0.0027766324391377
 40
0.0031518883830207
 40
0.0031518883830207
 40
0.0031518883830207
 40
0.0031518883830207
 10
-54.32974436700837
 20
2.31978237632338
 30
0
 10
-54.31718807835743
 20
2.298077722647984
 30
0
 10
-54.30463295214135
 20
2.276373057085543
 30
0
 10
-54.29207868790213
 20
2.254668546738388
 30
0
 10
-54.09205142861676
 20
1.90885029437846
 30
0
 10
-53.8920272491978
 20
1.563189191424945
 30
0
 10
-53.69178262602
 20
1.217782023150386
 30
0
 10
-53.64171857106338
 20
1.131425230241379
 30
0
 10
-53.59165577222628
 20
1.045075290584548
 30
0
 10
-53.54161648014187
 20
0.9587189004906954
 30
0
 10
-53.44154216789767
 20
0.7860134926692404
 30
0
 10
-53.34146574606609
 20
0.6133369489196882
 30
0
 10
-53.24138949217292
 20
0.4406840111155822
 30
0
 10
-53.14131400675031
 20
0.2680323990875346
 30
0
 10
-53.04123848071712
 20
0.0954040521666652
 30
0
 10
-52.94116442666441
 20
-0.0772053781240957
 30
0
 10
-52.8786046411029
 20
-0.1851095601531186
 30
0
 10
-52.8160453737478
 20
-0.293006405208725
 30
0
 10
-52.75348688377409
 20
-0.4008968096611455
 30
0
  0
SPLINE
  5
90
100
AcDbEntity
  8
0
  6
CONTINUOUS
 62
    7
370
   25
100
AcDbSpline
210
0
220
0
230
0
 70
    8
 71
    3
 72
   23
 73
   19
 74
    0
 42
1e-007
 43
1e-007
 40
0
 40
0
 40
0
 40
0
 40
1.67518172962e-005
 40
1.67518172962e-005
 40
1.67518172962e-005
 40
3.35022524508e-005
 40
3.35022524508e-005
 40
3.35022524508e-005
 40
5.02746349501e-005
 40
5.02746349501e-005
 40
5.02746349501e-005
 40
6.709447359780001e-005
 40
6.709447359780001e-005
 40
6.709447359780001e-005
 40
7.46013542898e-005
 40
7.46013542898e-005
 40
7.46013542898e-005
 40
7.82207272956e-005
 40
7.82207272956e-005
 40
7.82207272956e-005
 40
7.82207272956e-005
 10
-50.74550831906017
 20
11.92976062426449
 30
0
 10
-50.74568542991273
 20
11.92929077674024
 30
0
 10
-50.74499528531981
 20
11.92922780596397
 30
0
 10
-50.74349587356688
 20
11.92957654810431
 30
0
 10
-50.7419965306854
 20
11.92992527422611
 30
0
 10
-50.73964689536985
 20
11.93069518586148
 30
0
 10
-50.73664281794829
 20
11.93182176670759
 30
0
 10
-50.7336347546314
 20
11.93294984233318
 30
0
 10
-50.72988803784267
 20
11.93446643406732
 30
0
 10
-50.72571283832507
 20
11.93624573877063
 30
0
 10
-50.72152595110639
 20
11.93803002430933
 30
0
 10
-50.71679318777804
 20
11.94012748786535
 30
0
 10
-50.7119051345437
 20
11.94236488488982
 30
0
 10
-50.70969864029556
 20
11.94337485827362
 30
0
 10
-50.70744154136415
 20
11.94442171815453
 30
0
 10
-50.70517228032646
 20
11.94548762915103
 30
0
 10
-50.70409054984759
 20
11.94599573658931
 30
0
 10
-50.70300391086788
 20
11.94650916731667
 30
0
 10
-50.70191657990849
 20
11.94702592885906
 30
0
  0
SPLINE
  5
91
100
AcDbEntity
  8
0
  6
CONTINUOUS
 62
    7
370
   25
100
AcDbSpline
210
0
220
0
230
0
 70
    8
 71
    3
 72
   23
 73
   19
 74
    0
 42
1e-007
 43
1e-007
 40
0
 40
0
 40
0
 40
0
 40
7.53495869791e-005
 40
7.53495869791e-005
 40
7.53495869791e-005
 40
0.0012759121446679
 40
0.0012759121446679
 40
0.0012759121446679
 40
0.0015760671992041
 40
0.0015760671992041
 40
0.0015760671992041
 40
0.0021763522082179
 40
0.0021763522082179
 40
0.0021763522082179
 40
0.0027766324391376
 40
0.0027766324391376
 40
0.0027766324391376
 40
0.0031518883830207
 40
0.0031518883830207
 40
0.0031518883830207
 40
0.0031518883830207
 10
-50.74550888492216
 20
11.92976183508884
 30
0
 10
-50.75806517357309
 20
11.95146648876422
 30
0
 10
-50.77062029978914
 20
11.97317115432663
 30
0
 10
-50.78317456402836
 20
11.99487566467377
 30
0
 10
-50.98320182331373
 20
12.34069391703369
 30
0
 10
-51.18322600273268
 20
12.68635501998721
 30
0
 10
-51.38347062591049
 20
13.03176218826175
 30
0
 10
-51.4335346808671
 20
13.11811898117073
 30
0
 10
-51.48359747970439
 20
13.20446892082743
 30
0
 10
-51.53363677178857
 20
13.29082531092138
 30
0
 10
-51.63371108403233
 20
13.46353071874311
 30
0
 10
-51.73378750586438
 20
13.63620726249242
 30
0
 10
-51.83386375975757
 20
13.80886020029655
 30
0
 10
-51.93393924518017
 20
13.9815118123246
 30
0
 10
-52.03401477121336
 20
14.15414015924548
 30
0
 10
-52.13408882526606
 20
14.32674958953624
 30
0
 10
-52.19664861082759
 20
14.43465377156529
 30
0
 10
-52.25920787818271
 20
14.54255061662092
 30
0
 10
-52.32176636815644
 20
14.65044102107337
 30
0
  0
SPLINE
  5
92
100
AcDbEntity
  8
0
  6
CONTINUOUS
 62
    7
370
   25
100
AcDbSpline
210
0
220
0
230
0
 70
    8
 71
    3
 72
   20
 73
   16
 74
    0
 42
1e-007
 43
1e-007
 40
0
 40
0
 40
0
 40
0
 40
0.000375264195561
 40
0.000375264195561
 40
0.000375264195561
 40
0.0009755242489844
 40
0.0009755242489844
 40
0.0009755242489844
 40
0.0015758113689592
 40
0.0015758113689592
 40
0.0015758113689592
 40
0.0018759487887937
 40
0.0018759487887937
 40
0.0018759487887937
 40
0.0031518694472859
 40
0.0031518694472859
 40
0.0031518694472859
 40
0.0031518694472859
 10
-60.06334321013158
 20
6.907357055037339
 30
0
 10
-59.95546544953044
 20
6.844769886330671
 30
0
 10
-59.84759210258157
 20
6.782163052488305
 30
0
 10
-59.73971291579743
 20
6.71955307437592
 30
0
 10
-59.56715306487197
 20
6.619404298587149
 30
0
 10
-59.39457243876452
 20
6.519257198552844
 30
0
 10
-59.22193913764552
 20
6.419161280985009
 30
0
 10
-59.0492980977527
 20
6.319060876335817
 30
0
 10
-58.87660601018613
 20
6.219008054725086
 30
0
 10
-58.70392557137258
 20
6.118886766271227
 30
0
 10
-58.61758703918288
 20
6.068827100304188
 30
0
 10
-58.53124106646293
 20
6.018768118709009
 30
0
 10
-58.44488685458564
 20
5.96871028942663
 30
0
 10
-58.07778880099021
 20
5.755910805796509
 30
0
 10
-57.71053787629744
 20
5.54312559317687
 30
0
 10
-57.34306210073327
 20
5.330415149492885
 30
0
  0
SPLINE
  5
93
100
AcDbEntity
  8
0
  6
CONTINUOUS
 62
    7
370
   25
100
AcDbSpline
210
0
220
0
230
0
 70
    8
 71
    3
 72
   23
 73
   19
 74
    0
 42
1e-007
 43
1e-007
 40
0
 40
0
 40
0
 40
0
 40
1.63648437889e-005
 40
1.63648437889e-005
 40
1.63648437889e-005
 40
3.27142537761e-005
 40
3.27142537761e-005
 40
3.27142537761e-005
 40
4.93045568361e-005
 40
4.93045568361e-005
 40
4.93045568361e-005
 40
6.64385824012e-005
 40
6.64385824012e-005
 40
6.64385824012e-005
 40
7.74652535861e-005
 40
7.74652535861e-005
 40
7.74652535861e-005
 40
7.94654419419e-005
 40
7.94654419419e-005
 40
7.94654419419e-005
 40
7.94654419419e-005
 10
-57.34306166192181
 20
5.330415313088523
 30
0
 10
-57.34260269817089
 20
5.330588045114276
 30
0
 10
-57.34238088748219
 20
5.329843876360045
 30
0
 10
-57.34241214686334
 20
5.32825466847792
 30
0
 10
-57.34244338979182
 20
5.326666297039571
 30
0
 10
-57.34272763023995
 20
5.324193012197949
 30
0
 10
-57.34323550441569
 20
5.321054723520895
 30
0
 10
-57.34375095949162
 20
5.317869590459324
 30
0
 10
-57.34450971807492
 20
5.313917319590005
 30
0
 10
-57.34544603729681
 20
5.309524376617131
 30
0
 10
-57.3464127438665
 20
5.304988864867708
 30
0
 10
-57.34759394375524
 20
5.299864566114207
 30
0
 10
-57.34889355445235
 20
5.294560021826271
 30
0
 10
-57.34973652426137
 20
5.291119321703232
 30
0
 10
-57.35064021430451
 20
5.287556354571199
 30
0
 10
-57.35157526029166
 20
5.283986149207984
 30
0
 10
-57.3517434953404
 20
5.283343791846379
 30
0
 10
-57.35191292662069
 20
5.282700473119974
 30
0
 10
-57.35208337690834
 20
5.282056865054675
 30
0
  0
SPLINE
  5
94
100
AcDbEntity
  8
0
  6
CONTINUOUS
 62
    7
370
   25
100
AcDbSpline
210
0
220
0
230
0
 70
    8
 71
    3
 72
   20
 73
   16
 74
    0
 42
1e-007
 43
1e-007
 40
0
 40
0
 40
0
 40
0
 40
0.0003752641955609
 40
0.0003752641955609
 40
0.0003752641955609
 40
0.0009755242489844
 40
0.0009755242489844
 40
0.0009755242489844
 40
0.0015758113689592
 40
0.0015758113689592
 40
0.0015758113689592
 40
0.0018759487887937
 40
0.0018759487887937
 40
0.0018759487887937
 40
0.0031518694472859
 40
0.0031518694472859
 40
0.0031518694472859
 40
0.0031518694472859
 10
-45.01191004179894
 20
7.342187156374941
 30
0
 10
-45.11978780240005
 20
7.404774325081593
 30
0
 10
-45.2276611493489
 20
7.467381158923942
 30
0
 10
-45.33554033613301
 20
7.529991137036311
 30
0
 10
-45.5081001870585
 20
7.630139912825094
 30
0
 10
-45.68068081316598
 20
7.730287012859395
 30
0
 10
-45.85331411428501
 20
7.830382930427249
 30
0
 10
-46.02595515417782
 20
7.930483335076448
 30
0
 10
-46.19864724174439
 20
8.030536156687175
 30
0
 10
-46.37132768055794
 20
8.130657445141033
 30
0
 10
-46.45766621274764
 20
8.180717111108072
 30
0
 10
-46.54401218546758
 20
8.230776092703254
 30
0
 10
-46.63036639734487
 20
8.280833921985632
 30
0
 10
-46.99746445094031
 20
8.493633405615757
 30
0
 10
-47.3647153756331
 20
8.706418618235395
 30
0
 10
-47.73219115119728
 20
8.919129061919374
 30
0
  0
SPLINE
  5
95
100
AcDbEntity
  8
0
  6
CONTINUOUS
 62
    7
370
   25
100
AcDbSpline
210
0
220
0
230
0
 70
    8
 71
    3
 72
   23
 73
   19
 74
    0
 42
1e-007
 43
1e-007
 40
0
 40
0
 40
0
 40
0
 40
1.63648437889e-005
 40
1.63648437889e-005
 40
1.63648437889e-005
 40
3.27142537761e-005
 40
3.27142537761e-005
 40
3.27142537761e-005
 40
4.93045568361e-005
 40
4.93045568361e-005
 40
4.93045568361e-005
 40
6.64385824012e-005
 40
6.64385824012e-005
 40
6.64385824012e-005
 40
7.74652535862e-005
 40
7.74652535862e-005
 40
7.74652535862e-005
 40
7.9465441942e-005
 40
7.9465441942e-005
 40
7.9465441942e-005
 40
7.9465441942e-005
 10
-47.73219159000873
 20
8.919128898323734
 30
0
 10
-47.73265055375965
 20
8.918956166297981
 30
0
 10
-47.73287236444835
 20
8.919700335052214
 30
0
 10
-47.7328411050672
 20
8.921289542934339
 30
0
 10
-47.73280986213872
 20
8.922877914372688
 30
0
 10
-47.7325256216906
 20
8.925351199214308
 30
0
 10
-47.73201774751485
 20
8.928489487891362
 30
0
 10
-47.73150229243892
 20
8.931674620952933
 30
0
 10
-47.73074353385564
 20
8.935626891822254
 30
0
 10
-47.72980721463374
 20
8.940019834795127
 30
0
 10
-47.72884050806405
 20
8.944555346544552
 30
0
 10
-47.72765930817528
 20
8.949679645298044
 30
0
 10
-47.72635969747817
 20
8.95498418958598
 30
0
 10
-47.72551672766914
 20
8.95842488970904
 30
0
 10
-47.72461303762604
 20
8.961987856841111
 30
0
 10
-47.72367799163884
 20
8.965558062204341
 30
0
 10
-47.7235097565901
 20
8.966200419565945
 30
0
 10
-47.72334032530981
 20
8.966843738292351
 30
0
 10
-47.72316987502216
 20
8.96748734635765
 30
0
  0
SPLINE
  5
96
100
AcDbEntity
  8
0
  6
CONTINUOUS
 62
    7
370
   25
100
AcDbSpline
210
0
220
0
230
0
 70
    8
 71
    3
 72
   20
 73
   16
 74
    0
 42
1e-007
 43
1e-007
 40
0
 40
0
 40
0
 40
0
 40
0.0003752641955609
 40
0.0003752641955609
 40
0.0003752641955609
 40
0.0009755242489844
 40
0.0009755242489844
 40
0.0009755242489844
 40
0.0015758113689592
 40
0.0015758113689592
 40
0.0015758113689592
 40
0.0018759487887937
 40
0.0018759487887937
 40
0.0018759487887937
 40
0.0031518694472859
 40
0.0031518694472859
 40
0.0031518694472859
 40
0.0031518694472859
 10
-52.32021157529641
 20
-0.40094447846021
 30
0
 10
-52.25762440658976
 20
-0.2930667178590909
 30
0
 10
-52.1950175727474
 20
-0.1851933709102394
 30
0
 10
-52.13240759463503
 20
-0.077314184126122
 30
0
 10
-52.03225881884627
 20
0.09524566679935539
 30
0
 10
-51.93211171881198
 20
0.2678262929068339
 30
0
 10
-51.83201580124412
 20
0.4404595940258383
 30
0
 10
-51.73191539659491
 20
0.6131006339186681
 30
0
 10
-51.63186257498418
 20
0.7857927214852491
 30
0
 10
-51.53174128653032
 20
0.958473160298809
 30
0
 10
-51.48168162056329
 20
1.044811692488507
 30
0
 10
-51.4316226389681
 20
1.131157665208441
 30
0
 10
-51.38156480968573
 20
1.217511877085729
 30
0
 10
-51.16876532605561
 20
1.584609930681174
 30
0
 10
-50.95598011343597
 20
1.951860855373948
 30
0
 10
-50.74326966975198
 20
2.319336630938128
 30
0
  0
SPLINE
  5
97
100
AcDbEntity
  8
0
  6
CONTINUOUS
 62
    7
370
   25
100
AcDbSpline
210
0
220
0
230
0
 70
    8
 71
    3
 72
   23
 73
   19
 74
    0
 42
1e-007
 43
1e-007
 40
0
 40
0
 40
0
 40
0
 40
1.63648437889e-005
 40
1.63648437889e-005
 40
1.63648437889e-005
 40
3.27142537761e-005
 40
3.27142537761e-005
 40
3.27142537761e-005
 40
4.93045568361e-005
 40
4.93045568361e-005
 40
4.93045568361e-005
 40
6.64385824012e-005
 40
6.64385824012e-005
 40
6.64385824012e-005
 40
7.74652535861e-005
 40
7.74652535861e-005
 40
7.74652535861e-005
 40
7.94654419419e-005
 40
7.94654419419e-005
 40
7.94654419419e-005
 40
7.94654419419e-005
 10
-50.74326983334763
 20
2.319337069749563
 30
0
 10
-50.74344256537338
 20
2.319796033500482
 30
0
 10
-50.74269839661914
 20
2.320017844189221
 30
0
 10
-50.74110918873702
 20
2.319986584808069
 30
0
 10
-50.73952081729867
 20
2.319955341879589
 30
0
 10
-50.73704753245705
 20
2.31967110143143
 30
0
 10
-50.73390924378
 20
2.319163227255676
 30
0
 10
-50.73072411071843
 20
2.318647772179748
 30
0
 10
-50.72677183984912
 20
2.317889013596463
 30
0
 10
-50.72237889687624
 20
2.316952694374555
 30
0
 10
-50.71784338512682
 20
2.315985987804859
 30
0
 10
-50.71271908637331
 20
2.314804787916116
 30
0
 10
-50.70741454208538
 20
2.313505177218983
 30
0
 10
-50.70397384196235
 20
2.312662207409928
 30
0
 10
-50.7004108748303
 20
2.311758517366866
 30
0
 10
-50.69684066946708
 20
2.310823471379739
 30
0
 10
-50.69619831210547
 20
2.310655236331006
 30
0
 10
-50.69555499337908
 20
2.310485805050685
 30
0
 10
-50.69491138531378
 20
2.31031535476303
 30
0
  0
SPLINE
  5
98
100
AcDbEntity
  8
0
  6
CONTINUOUS
 62
    7
370
   25
100
AcDbSpline
210
0
220
0
230
0
 70
    8
 71
    3
 72
   20
 73
   16
 74
    0
 42
1e-007
 43
1e-007
 40
0
 40
0
 40
0
 40
0
 40
0.0003752641955609
 40
0.0003752641955609
 40
0.0003752641955609
 40
0.0009755242489844
 40
0.0009755242489844
 40
0.0009755242489844
 40
0.0015758113689592
 40
0.0015758113689592
 40
0.0015758113689592
 40
0.0018759487887937
 40
0.0018759487887937
 40
0.0018759487887937
 40
0.0031518694472859
 40
0.0031518694472859
 40
0.0031518694472859
 40
0.0031518694472859
 10
-52.75504167663411
 20
14.65048868987243
 30
0
 10
-52.81762884534077
 20
14.54261092927131
 30
0
 10
-52.88023567918313
 20
14.43473758232245
 30
0
 10
-52.9428456572955
 20
14.32685839553833
 30
0
 10
-53.04299443308427
 20
14.15429854461284
 30
0
 10
-53.14314153311859
 20
13.98171791850537
 30
0
 10
-53.24323745068643
 20
13.80908461738636
 30
0
 10
-53.34333785533562
 20
13.63644357749352
 30
0
 10
-53.44339067694636
 20
13.46375148992696
 30
0
 10
-53.54351196540022
 20
13.2910710511134
 30
0
 10
-53.59357163136725
 20
13.2047325189237
 30
0
 10
-53.64363061296243
 20
13.11838654620377
 30
0
 10
-53.69368844224481
 20
13.03203233432648
 30
0
 10
-53.90648792587493
 20
12.66493428073104
 30
0
 10
-54.11927313849456
 20
12.29768335603826
 30
0
 10
-54.33198358217854
 20
11.93020758047409
 30
0
  0
SPLINE
  5
99
100
AcDbEntity
  8
0
  6
CONTINUOUS
 62
    7
370
   25
100
AcDbSpline
210
0
220
0
230
0
 70
    8
 71
    3
 72
   23
 73
   19
 74
    0
 42
1e-007
 43
1e-007
 40
0
 40
0
 40
0
 40
0
 40
1.63648437889e-005
 40
1.63648437889e-005
 40
1.63648437889e-005
 40
3.27142537761e-005
 40
3.27142537761e-005
 40
3.27142537761e-005
 40
4.93045568361e-005
 40
4.93045568361e-005
 40
4.93045568361e-005
 40
6.64385824013e-005
 40
6.64385824013e-005
 40
6.64385824013e-005
 40
7.746525358629999e-005
 40
7.746525358629999e-005
 40
7.746525358629999e-005
 40
7.9465441942e-005
 40
7.9465441942e-005
 40
7.9465441942e-005
 40
7.9465441942e-005
 10
-54.3319834185829
 20
11.93020714166265
 30
0
 10
-54.33181068655715
 20
11.92974817791173
 30
0
 10
-54.33255485531138
 20
11.929526367223
 30
0
 10
-54.33414406319351
 20
11.92955762660415
 30
0
 10
-54.33573243463186
 20
11.92958886953264
 30
0
 10
-54.33820571947347
 20
11.92987310998078
 30
0
 10
-54.34134400815053
 20
11.93038098415653
 30
0
 10
-54.3445291412121
 20
11.93089643923246
 30
0
 10
-54.34848141208141
 20
11.93165519781576
 30
0
 10
-54.35287435505429
 20
11.93259151703767
 30
0
 10
-54.35740986680371
 20
11.93355822360737
 30
0
 10
-54.36253416555724
 20
11.93473942349605
 30
0
 10
-54.36783870984519
 20
11.93603903419313
 30
0
 10
-54.37127940996826
 20
11.93688200400216
 30
0
 10
-54.37484237710035
 20
11.93778569404522
 30
0
 10
-54.37841258246351
 20
11.93872074003272
 30
0
 10
-54.3790549398251
 20
11.93888897508152
 30
0
 10
-54.37969825855155
 20
11.93905840636165
 30
0
 10
-54.38034186661687
 20
11.93922885664924
 30
0
  0
SPLINE
  5
9A
100
AcDbEntity
  8
0
  6
CONTINUOUS
 62
    7
370
   25
100
AcDbSpline
210
0
220
0
230
0
 70
    8
 71
    3
 72
   12
 73
    8
 74
    0
 42
1e-007
 43
1e-007
 40
0
 40
0
 40
0
 40
0
 40
0.1714655518288545
 40
0.4646317572801688
 40
0.7673032039201579
 40
0.9647514028793108
 40
1
 40
1
 40
1
 40
1
 10
-60.06556983706791
 20
7.336581218960476
 30
0
 10
-60.06482868857663
 20
7.335579126340312
 30
0
 10
-60.06282034857928
 20
7.332863688457321
 30
0
 10
-60.05557728661505
 20
7.32475617265161
 30
0
 10
-60.04637708840936
 20
7.315000163929733
 30
0
 10
-60.03938192362638
 20
7.307870556437985
 30
0
 10
-60.03628927170114
 20
7.304771821145209
 30
0
 10
-60.03582080095472
 20
7.304302428898477
 30
0
  0
SPLINE
  5
9B
100
AcDbEntity
  8
0
  6
CONTINUOUS
 62
    7
370
   25
100
AcDbSpline
210
0
220
0
230
0
 70
    8
 71
    3
 72
   12
 73
    8
 74
    0
 42
1e-007
 43
1e-007
 40
0
 40
0
 40
0
 40
0
 40
0.49999999999999
 40
0.49999999999999
 40
0.749999999999995
 40
0.749999999999995
 40
1
 40
1
 40
1
 40
1
 10
-60.03582080095475
 20
7.304302428898193
 30
0
 10
-60.06950385063854
 20
7.245237017047098
 30
0
 10
-60.1051235636321
 20
7.186729749474666
 30
0
 10
-60.13294027609852
 20
7.088643774886544
 30
0
 10
-60.13694508756949
 20
7.050091010712504
 30
0
 10
-60.100005820812
 20
6.991149401369524
 30
0
 10
-60.07105624152378
 20
6.970332976682674
 30
0
 10
-60.04411793717372
 20
6.948473351419676
 30
0
  0
SPLINE
  5
9C
100
AcDbEntity
  8
0
  6
CONTINUOUS
 62
    7
370
   25
100
AcDbSpline
210
0
220
0
230
0
 70
    8
 71
    3
 72
   12
 73
    8
 74
    0
 42
1e-007
 43
1e-007
 40
0
 40
0
 40
0
 40
0
 40
0.2384354190949298
 40
0.5232574384108364
 40
0.8088781858610813
 40
0.9388665467347418
 40
1
 40
1
 40
1
 40
1
 10
-60.0672425301636
 20
6.910588222057656
 30
0
 10
-60.0664931865283
 20
6.91224059801401
 30
0
 10
-60.06484871762935
 20
6.915866812665741
 30
0
 10
-60.05877916813571
 20
6.926130085261652
 30
0
 10
-60.05201256995662
 20
6.936729048219892
 30
0
 10
-60.0468995540278
 20
6.944391796781414
 30
0
 10
-60.044792055283
 20
6.947484196535835
 30
0
 10
-60.04411793717355
 20
6.948473351419676
 30
0
  0
SPLINE
  5
9D
100
AcDbEntity
  8
0
  6
CONTINUOUS
 62
    7
370
   25
100
AcDbSpline
210
0
220
0
230
0
 70
    8
 71
    3
 72
   14
 73
   10
 74
    0
 42
1e-007
 43
1e-007
 40
0
 40
0
 40
0
 40
0
 40
0.25
 40
0.25
 40
0.5
 40
0.5
 40
0.75
 40
0.75
 40
1
 40
1
 40
1
 40
1
 10
-60.06785904187925
 20
6.907230451752785
 30
0
 10
-60.10053553534681
 20
6.933638464483139
 30
0
 10
-60.13504430061274
 20
6.959500104807453
 30
0
 10
-60.1789176025751
 20
7.031431291897511
 30
0
 10
-60.18052566387964
 20
7.077070349111158
 30
0
 10
-60.16244735366369
 20
7.158097289126954
 30
0
 10
-60.14610647278462
 20
7.195686438633167
 30
0
 10
-60.10869710504541
 20
7.26897222704094
 30
0
 10
-60.08877102233589
 20
7.304283207460493
 30
0
 10
-60.06780554918545
 20
7.340761724966964
 30
0
  0
SPLINE
  5
9E
100
AcDbEntity
  8
0
  6
CONTINUOUS
 62
    7
370
   25
100
AcDbSpline
210
0
220
0
230
0
 70
    8
 71
    3
 72
   12
 73
    8
 74
    0
 42
1e-007
 43
1e-007
 40
0
 40
0
 40
0
 40
0
 40
0.1714655518271344
 40
0.4646317572757639
 40
0.7673032039131079
 40
0.964751402871193
 40
1
 40
1
 40
1
 40
1
 10
-45.00968341486263
 20
6.912962992451808
 30
0
 10
-45.0104245633539
 20
6.913965085071978
 30
0
 10
-45.01243290335125
 20
6.916680522954992
 30
0
 10
-45.01967596531571
 20
6.924788038760439
 30
0
 10
-45.02887616352047
 20
6.934544047483294
 30
0
 10
-45.03587132830542
 20
6.941673654973282
 30
0
 10
-45.03896398022977
 20
6.944772390267206
 30
0
 10
-45.03943245097614
 20
6.945241782514203
 30
0
  0
SPLINE
  5
9F
100
AcDbEntity
  8
0
  6
CONTINUOUS
 62
    7
370
   25
100
AcDbSpline
210
0
220
0
230
0
 70
    8
 71
    3
 72
   12
 73
    8
 74
    0
 42
1e-007
 43
1e-007
 40
0
 40
0
 40
0
 40
0
 40
0.5000000000000031
 40
0.5000000000000031
 40
0.7500000000000016
 40
0.7500000000000016
 40
1
 40
1
 40
1
 40
1
 10
-45.03943245097575
 20
6.945241782514121
 30
0
 10
-45.00574940129197
 20
7.00430719436523
 30
0
 10
-44.9701296882984
 20
7.062814461937678
 30
0
 10
-44.94231297583199
 20
7.160900436525796
 30
0
 10
-44.93830816436105
 20
7.19945320069983
 30
0
 10
-44.97524743111855
 20
7.258394810042772
 30
0
 10
-45.00419701040677
 20
7.279211234729627
 30
0
 10
-45.03113531475682
 20
7.301070859992615
 30
0
  0
SPLINE
  5
A0
100
AcDbEntity
  8
0
  6
CONTINUOUS
 62
    7
370
   25
100
AcDbSpline
210
0
220
0
230
0
 70
    8
 71
    3
 72
   12
 73
    8
 74
    0
 42
1e-007
 43
1e-007
 40
0
 40
0
 40
0
 40
0
 40
0.2384354190958218
 40
0.5232574384127997
 40
0.8088781858643969
 40
0.9388665467342908
 40
0.9999999999999999
 40
0.9999999999999999
 40
0.9999999999999999
 40
0.9999999999999999
 10
-45.00801072176695
 20
7.338955989354629
 30
0
 10
-45.00876006540228
 20
7.337303613398287
 30
0
 10
-45.01040453430121
 20
7.33367739874658
 30
0
 10
-45.01647408379453
 20
7.323414126150417
 30
0
 10
-45.02324068197463
 20
7.312815163192981
 30
0
 10
-45.02835369790249
 20
7.305152414630895
 30
0
 10
-45.03046119664731
 20
7.302060014876585
 30
0
 10
-45.03113531475679
 20
7.301070859992754
 30
0
  0
SPLINE
  5
A1
100
AcDbEntity
  8
0
  6
CONTINUOUS
 62
    7
370
   25
100
AcDbSpline
210
0
220
0
230
0
 70
    8
 71
    3
 72
   14
 73
   10
 74
    0
 42
1e-007
 43
1e-007
 40
0
 40
0
 40
0
 40
0
 40
0.25
 40
0.25
 40
0.5
 40
0.5
 40
0.75
 40
0.75
 40
1
 40
1
 40
1
 40
1
 10
-45.00739421005128
 20
7.342313759659494
 30
0
 10
-44.97471771658368
 20
7.315905746929169
 30
0
 10
-44.94020895131786
 20
7.290044106604866
 30
0
 10
-44.89633564935546
 20
7.218112919514935
 30
0
 10
-44.89472758805084
 20
7.172473862301281
 30
0
 10
-44.91280589826682
 20
7.091446922285468
 30
0
 10
-44.92914677914584
 20
7.053857772779208
 30
0
 10
-44.96655614688508
 20
6.98057198437139
 30
0
 10
-44.98648222959383
 20
6.945261003951722
 30
0
 10
-45.00744770274508
 20
6.908782486445315
 30
0
  0
SPLINE
  5
A2
100
AcDbEntity
  8
0
  6
CONTINUOUS
 62
    7
370
   25
100
AcDbSpline
210
0
220
0
230
0
 70
    8
 71
    3
 72
   12
 73
    8
 74
    0
 42
1e-007
 43
1e-007
 40
0
 40
0
 40
0
 40
0
 40
0.1714655518172472
 40
0.4646317572589551
 40
0.7673032038893985
 40
0.9647514028397389
 40
1
 40
1
 40
1
 40
1
 10
-52.3258175127111
 20
14.65271531680867
 30
0
 10
-52.32681960533124
 20
14.65197416831742
 30
0
 10
-52.3295350432142
 20
14.64996582832007
 30
0
 10
-52.3376425590197
 20
14.64272276635578
 30
0
 10
-52.34739856774207
 20
14.63352256815054
 30
0
 10
-52.35452817523346
 20
14.62652740336629
 30
0
 10
-52.35762691052746
 20
14.6234347514412
 30
0
 10
-52.35809630277484
 20
14.62296628069435
 30
0
  0
SPLINE
  5
A3
100
AcDbEntity
  8
0
  6
CONTINUOUS
 62
    7
370
   25
100
AcDbSpline
210
0
220
0
230
0
 70
    8
 71
    3
 72
   12
 73
    8
 74
    0
 42
1e-007
 43
1e-007
 40
0
 40
0
 40
0
 40
0
 40
0.5000000000000245
 40
0.5000000000000245
 40
0.7500000000000122
 40
0.7500000000000122
 40
1
 40
1
 40
1
 40
1
 10
-52.3580963027733
 20
14.62296628069562
 30
0
 10
-52.41716171462442
 20
14.65664933037942
 30
0
 10
-52.47566898219686
 20
14.69226904337301
 30
0
 10
-52.573754956785
 20
14.72008575583938
 30
0
 10
-52.61230772095904
 20
14.72409056731031
 30
0
 10
-52.67124933030193
 20
14.68715130055281
 30
0
 10
-52.6920657549888
 20
14.65820172126461
 30
0
 10
-52.71392538025177
 20
14.63126341691456
 30
0
  0
SPLINE
  5
A4
100
AcDbEntity
  8
0
  6
CONTINUOUS
 62
    7
370
   25
100
AcDbSpline
210
0
220
0
230
0
 70
    8
 71
    3
 72
   12
 73
    8
 74
    0
 42
1e-007
 43
1e-007
 40
0
 40
0
 40
0
 40
0
 40
0.2384354190972524
 40
0.5232574384198658
 40
0.8088781858769191
 40
0.9388665467640585
 40
1
 40
1
 40
1
 40
1
 10
-52.75181050961371
 20
14.65438800990444
 30
0
 10
-52.75015813365735
 20
14.65363866626919
 30
0
 10
-52.74653191900556
 20
14.65199419737036
 30
0
 10
-52.73626864641024
 20
14.64592464787593
 30
0
 10
-52.72566968345031
 20
14.63915804969899
 30
0
 10
-52.71800693489091
 20
14.6340450337677
 30
0
 10
-52.71491453513617
 20
14.63193753502408
 30
0
 10
-52.71392538025263
 20
14.63126341691528
 30
0
  0
SPLINE
  5
A5
100
AcDbEntity
  8
0
  6
CONTINUOUS
 62
    7
370
   25
100
AcDbSpline
210
0
220
0
230
0
 70
    8
 71
    3
 72
   14
 73
   10
 74
    0
 42
1e-007
 43
1e-007
 40
0
 40
0
 40
0
 40
0
 40
0.25
 40
0.25
 40
0.5
 40
0.5
 40
0.75
 40
0.75
 40
1
 40
1
 40
1
 40
1
 10
-52.75516827991866
 20
14.65500452162009
 30
0
 10
-52.72876026718836
 20
14.68768101508885
 30
0
 10
-52.70289862686404
 20
14.72218978035353
 30
0
 10
-52.63096743977407
 20
14.76606308231591
 30
0
 10
-52.58532838256044
 20
14.76767114362053
 30
0
 10
-52.50430144254462
 20
14.74959283340456
 30
0
 10
-52.46671229303838
 20
14.73325195252552
 30
0
 10
-52.39342650463058
 20
14.69584258478628
 30
0
 10
-52.35811552421092
 20
14.67591650207739
 30
0
 10
-52.32163700670448
 20
14.6549510289263
 30
0
  0
SPLINE
  5
A6
100
AcDbEntity
  8
0
  6
CONTINUOUS
 62
    7
370
   25
100
AcDbSpline
210
0
220
0
230
0
 70
    8
 71
    3
 72
   12
 73
    8
 74
    0
 42
1e-007
 43
1e-007
 40
0
 40
0
 40
0
 40
0
 40
0.1714655518250659
 40
0.4646317572773466
 40
0.7673032039188953
 40
0.9647514028783627
 40
1
 40
1
 40
1
 40
1
 10
-52.74943573921947
 20
-0.4031711053964604
 30
0
 10
-52.74843364659932
 20
-0.4024299569052013
 30
0
 10
-52.74571820871634
 20
-0.4004216169078559
 30
0
 10
-52.73761069291085
 20
-0.3931785549435128
 30
0
 10
-52.7278546841881
 20
-0.383978356738674
 30
0
 10
-52.72072507669818
 20
-0.3769831919538779
 30
0
 10
-52.7176263414043
 20
-0.3738905400297182
 30
0
 10
-52.71715694915739
 20
-0.3734220692834594
 30
0
  0
SPLINE
  5
A7
100
AcDbEntity
  8
0
  6
CONTINUOUS
 62
    7
370
   25
100
AcDbSpline
210
0
220
0
230
0
 70
    8
 71
    3
 72
   12
 73
    8
 74
    0
 42
1e-007
 43
1e-007
 40
0
 40
0
 40
0
 40
0
 40
0.5
 40
0.5
 40
0.75
 40
0.75
 40
1
 40
1
 40
1
 40
1
 10
-52.71715694915723
 20
-0.3734220692833991
 30
0
 10
-52.65809153730611
 20
-0.4071051189671966
 30
0
 10
-52.59958426973363
 20
-0.4427248319608052
 30
0
 10
-52.5014982951455
 20
-0.4705415444271625
 30
0
 10
-52.46294553097146
 20
-0.4745463558980936
 30
0
 10
-52.40400392162856
 20
-0.437607089140549
 30
0
 10
-52.38318749694171
 20
-0.4086575098523483
 30
0
 10
-52.36132787167872
 20
-0.3817192055023009
 30
0
  0
SPLINE
  5
A8
100
AcDbEntity
  8
0
  6
CONTINUOUS
 62
    7
370
   25
100
AcDbSpline
210
0
220
0
230
0
 70
    8
 71
    3
 72
   12
 73
    8
 74
    0
 42
1e-007
 43
1e-007
 40
0
 40
0
 40
0
 40
0
 40
0.2384354190868357
 40
0.5232574383958422
 40
0.8088781858392355
 40
0.9388665467194625
 40
1
 40
1
 40
1
 40
1
 10
-52.32344274231678
 20
-0.4048437984921863
 30
0
 10
-52.32509511827314
 20
-0.4040944548569201
 30
0
 10
-52.3287213329249
 20
-0.4024499859580908
 30
0
 10
-52.33898460552084
 20
-0.3963804364644986
 30
0
 10
-52.34958356847909
 20
-0.3896138382851246
 30
0
 10
-52.35724631704048
 20
-0.3845008223552053
 30
0
 10
-52.36033871679589
 20
-0.3823933236108958
 30
0
 10
-52.36132787168018
 20
-0.3817192055015123
 30
0
  0
SPLINE
  5
A9
100
AcDbEntity
  8
0
  6
CONTINUOUS
 62
    7
370
   25
100
AcDbSpline
210
0
220
0
230
0
 70
    8
 71
    3
 72
   14
 73
   10
 74
    0
 42
1e-007
 43
1e-007
 40
0
 40
0
 40
0
 40
0
 40
0.25
 40
0.25
 40
0.5
 40
0.5
 40
0.75
 40
0.75
 40
1
 40
1
 40
1
 40
1
 10
-52.32008497201186
 20
-0.405460310207873
 30
0
 10
-52.34649298474219
 20
-0.4381368036749844
 30
0
 10
-52.37235462506651
 20
-0.472645568941295
 30
0
 10
-52.44428581215642
 20
-0.5165188709036875
 30
0
 10
-52.48992486937009
 20
-0.5181269322083066
 30
0
 10
-52.5709518093859
 20
-0.5000486219923377
 30
0
 10
-52.60854095889214
 20
-0.4837077411133005
 30
0
 10
-52.68182674729995
 20
-0.4462983733740534
 30
0
 10
-52.7171377277196
 20
-0.4263722906643036
 30
0
 10
-52.75361624522603
 20
-0.4054068175140805
 30
0
  0
SPLINE
  5
AA
100
AcDbEntity
  8
0
  6
CONTINUOUS
 62
    7
370
   25
100
AcDbSpline
210
0
220
0
230
0
 70
    8
 71
    3
 72
   17
 73
   13
 74
    0
 42
1e-007
 43
1e-007
 40
0
 40
0
 40
0
 40
0
 40
0.0012724309733713
 40
0.0012724309733713
 40
0.0012724309733713
 40
0.0015726479826815
 40
0.0015726479826815
 40
0.0015726479826815
 40
0.0027736472949389
 40
0.0027736472949389
 40
0.0027736472949389
 40
0.0031364897966965
 40
0.0031364897966965
 40
0.0031364897966965
 40
0.0031364897966965
 10
-52.71392538025177
 20
14.63126341691457
 30
0
 10
-52.92634158163972
 20
14.2655994343876
 30
0
 10
-53.13890876429964
 20
13.89994354048061
 30
0
 10
-53.35130098567375
 20
13.53407513005044
 30
0
 10
-53.40141292943064
 20
13.4477519253338
 30
0
 10
-53.45152598277016
 20
13.36142294365866
 30
0
 10
-53.50166093508172
 20
13.27509963113484
 30
0
 10
-53.70222111548843
 20
12.92977130558879
 30
0
 10
-53.90280075265079
 20
12.58433874315351
 30
0
 10
-54.1033532295841
 20
12.23874081536473
 30
0
 10
-54.16394414965615
 20
12.1343287595282
 30
0
 10
-54.22453257859211
 20
12.02990095907343
 30
0
 10
-54.28511627087126
 20
11.9254553942785
 30
0
  0
SPLINE
  5
AB
100
AcDbEntity
  8
0
  6
CONTINUOUS
 62
    7
370
   25
100
AcDbSpline
210
0
220
0
230
0
 70
    8
 71
    3
 72
   23
 73
   19
 74
    0
 42
1e-007
 43
1e-007
 40
0
 40
0
 40
0
 40
0
 40
1.63634387727e-005
 40
1.63634387727e-005
 40
1.63634387727e-005
 40
3.27115303355e-005
 40
3.27115303355e-005
 40
3.27115303355e-005
 40
4.92992178975e-005
 40
4.92992178975e-005
 40
4.92992178975e-005
 40
6.643052787800001e-005
 40
6.643052787800001e-005
 40
6.643052787800001e-005
 40
7.754000852630001e-005
 40
7.754000852630001e-005
 40
7.754000852630001e-005
 40
7.95350945595e-005
 40
7.95350945595e-005
 40
7.95350945595e-005
 40
7.95350945595e-005
 10
-54.33356147580066
 20
11.93443330995217
 30
0
 10
-54.33373305884658
 20
11.93489644763712
 30
0
 10
-54.33298797089657
 20
11.93512216571271
 30
0
 10
-54.33139799924997
 20
11.93509445598837
 30
0
 10
-54.32980885959665
 20
11.93506676076386
 30
0
 10
-54.32733490830982
 20
11.93478582166879
 30
0
 10
-54.32419592255775
 20
11.93428128464036
 30
0
 10
-54.32101032039337
 20
11.93376925483942
 30
0
 10
-54.31705763355469
 20
11.93301411224162
 30
0
 10
-54.31266425279883
 20
11.93208200045498
 30
0
 10
-54.30812826838991
 20
11.93111963348374
 30
0
 10
-54.30300351917224
 20
11.92994356121586
 30
0
 10
-54.29769837090517
 20
11.92865000045572
 30
0
 10
-54.29423118498713
 20
11.92780459229257
 30
0
 10
-54.29063969012584
 20
11.92689794734241
 30
0
 10
-54.28704141496844
 20
11.92595999822
 30
0
 10
-54.28640042057499
 20
11.9257929125741
 30
0
 10
-54.28575847835149
 20
11.92562467348137
 30
0
 10
-54.28511627087183
 20
11.92545539427813
 30
0
  0
SPLINE
  5
AC
100
AcDbEntity
  8
0
  6
CONTINUOUS
 62
    7
370
   25
100
AcDbSpline
210
0
220
0
230
0
 70
    8
 71
    3
 72
   17
 73
   13
 74
    0
 42
1e-007
 43
1e-007
 40
0
 40
0
 40
0
 40
0
 40
0.0012724309733713
 40
0.0012724309733713
 40
0.0012724309733713
 40
0.0015726479826814
 40
0.0015726479826814
 40
0.0015726479826814
 40
0.0027736472949389
 40
0.0027736472949389
 40
0.0027736472949389
 40
0.0031364897966964
 40
0.0031364897966964
 40
0.0031364897966964
 40
0.0031364897966964
 10
-52.36132787167872
 20
-0.3817192055022992
 30
0
 10
-52.14891167029079
 20
-0.0160552229753435
 30
0
 10
-51.93634448763094
 20
0.3496006709316855
 30
0
 10
-51.72395226625678
 20
0.7154690813618146
 30
0
 10
-51.67384032249988
 20
0.8017922860784393
 30
0
 10
-51.62372726916035
 20
0.8881212677535645
 30
0
 10
-51.57359231684879
 20
0.9744445802773831
 30
0
 10
-51.37303213644208
 20
1.319772905823429
 30
0
 10
-51.17245249927973
 20
1.665205468258703
 30
0
 10
-50.97190002234642
 20
2.010803396047482
 30
0
 10
-50.91130910227437
 20
2.115215451884024
 30
0
 10
-50.85072067333839
 20
2.219643252338791
 30
0
 10
-50.79013698105924
 20
2.324088817133727
 30
0
  0
SPLINE
  5
AD
100
AcDbEntity
  8
0
  6
CONTINUOUS
 62
    7
370
   25
100
AcDbSpline
210
0
220
0
230
0
 70
    8
 71
    3
 72
   23
 73
   19
 74
    0
 42
1e-007
 43
1e-007
 40
0
 40
0
 40
0
 40
0
 40
1.63634387727e-005
 40
1.63634387727e-005
 40
1.63634387727e-005
 40
3.27115303355e-005
 40
3.27115303355e-005
 40
3.27115303355e-005
 40
4.92992178975e-005
 40
4.92992178975e-005
 40
4.92992178975e-005
 40
6.643052787800001e-005
 40
6.643052787800001e-005
 40
6.643052787800001e-005
 40
7.754000852630001e-005
 40
7.754000852630001e-005
 40
7.754000852630001e-005
 40
7.95350945595e-005
 40
7.95350945595e-005
 40
7.95350945595e-005
 40
7.95350945595e-005
 10
-50.74169177612986
 20
2.315110901460032
 30
0
 10
-50.74152019308395
 20
2.314647763775079
 30
0
 10
-50.74226528103395
 20
2.314422045699515
 30
0
 10
-50.74385525268055
 20
2.314449755423851
 30
0
 10
-50.74544439233387
 20
2.314477450648366
 30
0
 10
-50.74791834362073
 20
2.314758389743415
 30
0
 10
-50.75105732937278
 20
2.315262926771842
 30
0
 10
-50.75424293153716
 20
2.315774956572779
 30
0
 10
-50.75819561837583
 20
2.316530099170637
 30
0
 10
-50.76258899913169
 20
2.317462210957292
 30
0
 10
-50.7671249835406
 20
2.318424577928555
 30
0
 10
-50.7722497327583
 20
2.319600650196305
 30
0
 10
-50.77755488102535
 20
2.320894210956439
 30
0
 10
-50.78102206694339
 20
2.321739619119582
 30
0
 10
-50.78461356180446
 20
2.322646264070467
 30
0
 10
-50.78821183696224
 20
2.323584213191397
 30
0
 10
-50.78885283135577
 20
2.323751298837037
 30
0
 10
-50.78949477357909
 20
2.323919537930461
 30
0
 10
-50.79013698105869
 20
2.324088817133923
 30
0
  0
SPLINE
  5
AE
100
AcDbEntity
  8
0
  6
CONTINUOUS
 62
    7
370
   25
100
AcDbSpline
210
0
220
0
230
0
 70
    8
 71
    3
 72
   17
 73
   13
 74
    0
 42
1e-007
 43
1e-007
 40
0
 40
0
 40
0
 40
0
 40
0.0012724309733713
 40
0.0012724309733713
 40
0.0012724309733713
 40
0.0015726479826814
 40
0.0015726479826814
 40
0.0015726479826814
 40
0.0027736472949389
 40
0.0027736472949389
 40
0.0027736472949389
 40
0.0031364897966965
 40
0.0031364897966965
 40
0.0031364897966965
 40
0.0031364897966965
 10
-45.03113531475682
 20
7.301070859992615
 30
0
 10
-45.39679929728379
 20
7.513487061380549
 30
0
 10
-45.76245519119085
 20
7.726054244040374
 30
0
 10
-46.12832360162097
 20
7.938446465414579
 30
0
 10
-46.21464680633758
 20
7.988558409171486
 30
0
 10
-46.30097578801272
 20
8.03867146251101
 30
0
 10
-46.38729910053654
 20
8.088806414822569
 30
0
 10
-46.73262742608259
 20
8.289366595229286
 30
0
 10
-47.07805998851789
 20
8.489946232391636
 30
0
 10
-47.42365791630668
 20
8.690498709324959
 30
0
 10
-47.5280699721432
 20
8.751089629397006
 30
0
 10
-47.63249777259795
 20
8.811678058332962
 30
0
 10
-47.73694333739287
 20
8.872261750612106
 30
0
  0
SPLINE
  5
AF
100
AcDbEntity
  8
0
  6
CONTINUOUS
 62
    7
370
   25
100
AcDbSpline
210
0
220
0
230
0
 70
    8
 71
    3
 72
   23
 73
   19
 74
    0
 42
1e-007
 43
1e-007
 40
0
 40
0
 40
0
 40
0
 40
1.63634387727e-005
 40
1.63634387727e-005
 40
1.63634387727e-005
 40
3.27115303355e-005
 40
3.27115303355e-005
 40
3.27115303355e-005
 40
4.92992178975e-005
 40
4.92992178975e-005
 40
4.92992178975e-005
 40
6.643052787800001e-005
 40
6.643052787800001e-005
 40
6.643052787800001e-005
 40
7.754000852630001e-005
 40
7.754000852630001e-005
 40
7.754000852630001e-005
 40
7.953509456089999e-005
 40
7.953509456089999e-005
 40
7.953509456089999e-005
 40
7.953509456089999e-005
 10
-47.72796542171913
 20
8.920706955541492
 30
0
 10
-47.72750228403417
 20
8.920878538587401
 30
0
 10
-47.72727656595867
 20
8.920133450637412
 30
0
 10
-47.727304275683
 20
8.918543478990815
 30
0
 10
-47.72733197090752
 20
8.91695433933749
 30
0
 10
-47.72761291000258
 20
8.91448038805065
 30
0
 10
-47.728117447031
 20
8.911341402298595
 30
0
 10
-47.72862947683194
 20
8.90815580013421
 30
0
 10
-47.72938461942979
 20
8.90420311329555
 30
0
 10
-47.73031673121643
 20
8.899809732539687
 30
0
 10
-47.7312790981877
 20
8.895273748130778
 30
0
 10
-47.73245517045544
 20
8.890148998913077
 30
0
 10
-47.73374873121553
 20
8.884843850646007
 30
0
 10
-47.73459413937865
 20
8.881376664727954
 30
0
 10
-47.73550078432925
 20
8.87778516986679
 30
0
 10
-47.736438733451
 20
8.87418689470921
 30
0
 10
-47.7366058190969
 20
8.873545900315271
 30
0
 10
-47.73677405819029
 20
8.872903958091454
 30
0
 10
-47.73694333739387
 20
8.872261750611399
 30
0
  0
SPLINE
  5
B0
100
AcDbEntity
  8
0
  6
CONTINUOUS
 62
    7
370
   25
100
AcDbSpline
210
0
220
0
230
0
 70
    8
 71
    3
 72
   17
 73
   13
 74
    0
 42
1e-007
 43
1e-007
 40
0
 40
0
 40
0
 40
0
 40
0.0012724309733713
 40
0.0012724309733713
 40
0.0012724309733713
 40
0.0015726479826815
 40
0.0015726479826815
 40
0.0015726479826815
 40
0.0027736472949389
 40
0.0027736472949389
 40
0.0027736472949389
 40
0.0031364897966965
 40
0.0031364897966965
 40
0.0031364897966965
 40
0.0031364897966965
 10
-60.04411793717372
 20
6.948473351419673
 30
0
 10
-59.67845395464675
 20
6.736057150031728
 30
0
 10
-59.31279806073969
 20
6.523489967371886
 30
0
 10
-58.94692965030957
 20
6.311097745997691
 30
0
 10
-58.86060644559295
 20
6.260985802240783
 30
0
 10
-58.7742774639178
 20
6.210872748901258
 30
0
 10
-58.68795415139397
 20
6.160737796589694
 30
0
 10
-58.34262582584793
 20
5.960177616182981
 30
0
 10
-57.99719326341265
 20
5.759597979020619
 30
0
 10
-57.65159533562386
 20
5.559045502087299
 30
0
 10
-57.54718327978734
 20
5.498454582015254
 30
0
 10
-57.44275547933258
 20
5.437866153079304
 30
0
 10
-57.33830991453767
 20
5.377282460800155
 30
0
  0
SPLINE
  5
B1
100
AcDbEntity
  8
0
  6
CONTINUOUS
 62
    7
370
   25
100
AcDbSpline
210
0
220
0
230
0
 70
    8
 71
    3
 72
   23
 73
   19
 74
    0
 42
1e-007
 43
1e-007
 40
0
 40
0
 40
0
 40
0
 40
1.63634387727e-005
 40
1.63634387727e-005
 40
1.63634387727e-005
 40
3.27115303355e-005
 40
3.27115303355e-005
 40
3.27115303355e-005
 40
4.92992178975e-005
 40
4.92992178975e-005
 40
4.92992178975e-005
 40
6.643052787800001e-005
 40
6.643052787800001e-005
 40
6.643052787800001e-005
 40
7.754000852630001e-005
 40
7.754000852630001e-005
 40
7.754000852630001e-005
 40
7.95350945608e-005
 40
7.95350945608e-005
 40
7.95350945608e-005
 40
7.95350945608e-005
 10
-57.34728783021139
 20
5.328837255870765
 30
0
 10
-57.34775096789635
 20
5.328665672824855
 30
0
 10
-57.34797668597185
 20
5.329410760774844
 30
0
 10
-57.34794897624752
 20
5.331000732421439
 30
0
 10
-57.347921281023
 20
5.332589872074764
 30
0
 10
-57.34764034192794
 20
5.335063823361606
 30
0
 10
-57.34713580489952
 20
5.338202809113661
 30
0
 10
-57.34662377509858
 20
5.341388411278046
 30
0
 10
-57.34586863250077
 20
5.345341098116712
 30
0
 10
-57.34493652071412
 20
5.349734478872575
 30
0
 10
-57.34397415374286
 20
5.354270463281484
 30
0
 10
-57.34279808147508
 20
5.359395212499174
 30
0
 10
-57.34150452071497
 20
5.36470036076624
 30
0
 10
-57.34065911255184
 20
5.368167546684298
 30
0
 10
-57.33975246760161
 20
5.371759041545572
 30
0
 10
-57.33881451847916
 20
5.375357316702976
 30
0
 10
-57.33864743283315
 20
5.375998311096837
 30
0
 10
-57.33847919374016
 20
5.376640253320713
 30
0
 10
-57.33830991453673
 20
5.377282460800759
 30
0
  0
SPLINE
  5
B2
100
AcDbEntity
  8
0
  6
CONTINUOUS
 62
    7
370
   25
100
AcDbSpline
210
0
220
0
230
0
 70
    8
 71
    3
 72
   23
 73
   19
 74
    0
 42
1e-007
 43
1e-007
 40
0
 40
0
 40
0
 40
0
 40
7.21501454925e-005
 40
7.21501454925e-005
 40
7.21501454925e-005
 40
0.0012732172319465
 40
0.0012732172319465
 40
0.0012732172319465
 40
0.0015734472052173
 40
0.0015734472052173
 40
0.0015734472052173
 40
0.0021738842781432
 40
0.0021738842781432
 40
0.0021738842781432
 40
0.0027742867978041
 40
0.0027742867978041
 40
0.0027742867978041
 40
0.0031365274173847
 40
0.0031365274173847
 40
0.0031365274173847
 40
0.0031365274173847
 10
-57.32959669116131
 20
8.874816574698318
 30
0
 10
-57.35036850346124
 20
8.862775182588317
 30
0
 10
-57.37114034584124
 20
8.850734890982038
 30
0
 10
-57.39191207496951
 20
8.838695441895634
 30
0
 10
-57.73768960079364
 20
8.638280209650226
 30
0
 10
-58.08331885731928
 20
8.437884679363753
 30
0
 10
-58.42870999598126
 20
8.23729581175651
 30
0
 10
-58.51504803914615
 20
8.187154252314764
 30
0
 10
-58.60138016899087
 20
8.137015540115968
 30
0
 10
-58.68771971687345
 20
8.086901920572879
 30
0
 10
-58.86039208741423
 20
7.986678584974077
 30
0
 10
-59.03303941944621
 20
7.886459597381252
 30
0
 10
-59.20566680634122
 20
7.786246833865314
 30
0
 10
-59.37828430690439
 20
7.686039809511932
 30
0
 10
-59.55088219182919
 20
7.585838797204869
 30
0
 10
-59.72346455461707
 20
7.485644828046433
 30
0
 10
-59.82758865743289
 20
7.425194808834436
 30
0
 10
-59.93170715758149
 20
7.364747300306433
 30
0
 10
-60.03582080095475
 20
7.304302428898167
 30
0
  0
SPLINE
  5
B3
100
AcDbEntity
  8
0
  6
CONTINUOUS
 62
    7
370
   25
100
AcDbSpline
210
0
220
0
230
0
 70
    8
 71
    3
 72
   23
 73
   19
 74
    0
 42
1e-007
 43
1e-007
 40
0
 40
0
 40
0
 40
0
 40
7.21501454925e-005
 40
7.21501454925e-005
 40
7.21501454925e-005
 40
0.0012732172319464
 40
0.0012732172319464
 40
0.0012732172319464
 40
0.0015734472052171
 40
0.0015734472052171
 40
0.0015734472052171
 40
0.0021738842781432
 40
0.0021738842781432
 40
0.0021738842781432
 40
0.0027742867978041
 40
0.0027742867978041
 40
0.0027742867978041
 40
0.0031365274173848
 40
0.0031365274173848
 40
0.0031365274173848
 40
0.0031365274173848
 10
-50.78758215697314
 20
11.91674217090219
 30
0
 10
-50.79962354908314
 20
11.93751398320211
 30
0
 10
-50.81166384068939
 20
11.95828582558211
 30
0
 10
-50.82370328977579
 20
11.97905755471038
 30
0
 10
-51.02411852202119
 20
12.32483508053452
 30
0
 10
-51.22451405230768
 20
12.67046433706015
 30
0
 10
-51.42510291991492
 20
13.01585547572213
 30
0
 10
-51.47524447935663
 20
13.10219351888697
 30
0
 10
-51.52538319155553
 20
13.18852564873155
 30
0
 10
-51.57549681109847
 20
13.27486519661415
 30
0
 10
-51.67572014669706
 20
13.44753756715513
 30
0
 10
-51.77593913429017
 20
13.62018489918702
 30
0
 10
-51.87615189780615
 20
13.79281228608209
 30
0
 10
-51.97635892215953
 20
13.96542978664526
 30
0
 10
-52.07655993446658
 20
14.13802767157007
 30
0
 10
-52.17675390362502
 20
14.31061003435795
 30
0
 10
-52.23720392283702
 20
14.41473413717378
 30
0
 10
-52.29765143136502
 20
14.51885263732237
 30
0
 10
-52.35809630277328
 20
14.62296628069563
 30
0
  0
SPLINE
  5
B4
100
AcDbEntity
  8
0
  6
CONTINUOUS
 62
    7
370
   25
100
AcDbSpline
210
0
220
0
230
0
 70
    8
 71
    3
 72
   23
 73
   19
 74
    0
 42
1e-007
 43
1e-007
 40
0
 40
0
 40
0
 40
0
 40
7.21501454923e-005
 40
7.21501454923e-005
 40
7.21501454923e-005
 40
0.0012732172319462
 40
0.0012732172319462
 40
0.0012732172319462
 40
0.001573447205217
 40
0.001573447205217
 40
0.001573447205217
 40
0.002173884278143
 40
0.002173884278143
 40
0.002173884278143
 40
0.0027742867978039
 40
0.0027742867978039
 40
0.0027742867978039
 40
0.0031365274173848
 40
0.0031365274173848
 40
0.0031365274173848
 40
0.0031365274173848
 10
-54.28767109495744
 20
2.33280204051009
 30
0
 10
-54.27562970284747
 20
2.312030228210223
 30
0
 10
-54.26358941124124
 20
2.291258385830287
 30
0
 10
-54.25154996215488
 20
2.270486656702076
 30
0
 10
-54.05113472990944
 20
1.924709130877954
 30
0
 10
-53.85073919962296
 20
1.579079874352314
 30
0
 10
-53.65015033201573
 20
1.233688735690334
 30
0
 10
-53.60000877257399
 20
1.147350692525446
 30
0
 10
-53.549870060375
 20
1.061018562680836
 30
0
 10
-53.4997564408321
 20
0.974679014798159
 30
0
 10
-53.39953310523367
 20
0.802006644257156
 30
0
 10
-53.29931411764047
 20
0.6293593122253807
 30
0
 10
-53.19910135412453
 20
0.45673192533036
 30
0
 10
-53.09889432977114
 20
0.2841144247671878
 30
0
 10
-52.99869331746407
 20
0.1115165398423837
 30
0
 10
-52.89849934830563
 20
-0.0610658229454929
 30
0
 10
-52.83804932909359
 20
-0.1651899257614018
 30
0
 10
-52.77760182056553
 20
-0.2693084259100664
 30
0
 10
-52.71715694915722
 20
-0.3734220692833984
 30
0
  0
SPLINE
  5
B5
100
AcDbEntity
  8
0
  6
CONTINUOUS
 62
    7
370
   25
100
AcDbSpline
210
0
220
0
230
0
 70
    8
 71
    3
 72
   23
 73
   19
 74
    0
 42
1e-007
 43
1e-007
 40
0
 40
0
 40
0
 40
0
 40
7.21501454925e-005
 40
7.21501454925e-005
 40
7.21501454925e-005
 40
0.0012732172319465
 40
0.0012732172319465
 40
0.0012732172319465
 40
0.0015734472052173
 40
0.0015734472052173
 40
0.0015734472052173
 40
0.0021738842781433
 40
0.0021738842781433
 40
0.0021738842781433
 40
0.0027742867978042
 40
0.0027742867978042
 40
0.0027742867978042
 40
0.0031365274173849
 40
0.0031365274173849
 40
0.0031365274173849
 40
0.0031365274173849
 10
-47.74565656076929
 20
5.374727636713899
 30
0
 10
-47.72488474846934
 20
5.386769028823912
 30
0
 10
-47.70411290608932
 20
5.398809320430207
 30
0
 10
-47.68334117696103
 20
5.410848769516622
 30
0
 10
-47.33756365113689
 20
5.611264001762028
 30
0
 10
-46.99193439461125
 20
5.811659532048519
 30
0
 10
-46.64654325594927
 20
6.012248399655743
 30
0
 10
-46.5602052127844
 20
6.062389959097469
 30
0
 10
-46.47387308293974
 20
6.112528671296324
 30
0
 10
-46.38753353505715
 20
6.162642290839345
 30
0
 10
-46.21486116451629
 20
6.262865626438045
 30
0
 10
-46.04221383248435
 20
6.363084614030991
 30
0
 10
-45.86958644558932
 20
6.46329737754694
 30
0
 10
-45.69696894502615
 20
6.563504401900324
 30
0
 10
-45.52437106010135
 20
6.663705414207393
 30
0
 10
-45.35178869731347
 20
6.763899383365832
 30
0
 10
-45.24766459449763
 20
6.82434940257784
 30
0
 10
-45.14354609434902
 20
6.884796911105844
 30
0
 10
-45.03943245097575
 20
6.945241782514119
 30
0
  0
SPLINE
  5
B6
100
AcDbEntity
  8
0
  6
CONTINUOUS
 62
    7
370
   25
100
AcDbSpline
210
0
220
0
230
0
 70
    8
 71
    3
 72
   12
 73
    8
 74
    0
 42
1e-007
 43
1e-007
 40
0
 40
0
 40
0
 40
0
 40
0.4999999999999747
 40
0.4999999999999747
 40
0.7499999999999873
 40
0.7499999999999873
 40
1
 40
1
 40
1
 40
1
 10
-57.33830991453767
 20
5.377282460800153
 30
0
 10
-57.27075058809131
 20
5.377438555809927
 30
0
 10
-57.20281550998584
 20
5.375347332341983
 30
0
 10
-57.1044040546378
 20
5.400171275850339
 30
0
 10
-57.06925825599658
 20
5.415678549013167
 30
0
 10
-57.03670175623739
 20
5.47783406179556
 30
0
 10
-57.03356684452573
 20
5.513267069746284
 30
0
 10
-57.02833826954726
 20
5.54769365332398
 30
0
  0
SPLINE
  5
B7
100
AcDbEntity
  8
0
  6
CONTINUOUS
 62
    7
370
   25
100
AcDbSpline
210
0
220
0
230
0
 70
    8
 71
    3
 72
   12
 73
    8
 74
    0
 42
1e-007
 43
1e-007
 40
0
 40
0
 40
0
 40
0
 40
0.5000000000000177
 40
0.5000000000000177
 40
0.7500000000000088
 40
0.7500000000000088
 40
1
 40
1
 40
1
 40
1
 10
-57.02798354957479
 20
8.689962982332091
 30
0
 10
-57.06172555369085
 20
8.748791194715372
 30
0
 10
-57.09398052406203
 20
8.80894299720012
 30
0
 10
-57.16438513990565
 20
8.882205621722161
 30
0
 10
-57.19523230202176
 20
8.904894223638932
 30
0
 10
-57.26528098030271
 20
8.902262399786878
 30
0
 10
-57.29727173373443
 20
8.887362359271947
 30
0
 10
-57.32959669116131
 20
8.874816574698315
 30
0
  0
SPLINE
  5
B8
100
AcDbEntity
  8
0
  6
CONTINUOUS
 62
    7
370
   25
100
AcDbSpline
210
0
220
0
230
0
 70
    8
 71
    3
 72
    8
 73
    4
 74
    0
 42
1e-007
 43
1e-007
 40
0
 40
0
 40
0
 40
0
 40
1
 40
1
 40
1
 40
1
 10
-57.02833826954725
 20
5.547693653323979
 30
0
 10
-57.03190991689118
 20
6.594827823906447
 30
0
 10
-57.03180462396282
 20
7.642817578395683
 30
0
 10
-57.02798354957478
 20
8.689962982332091
 30
0
  0
SPLINE
  5
B9
100
AcDbEntity
  8
0
  6
CONTINUOUS
 62
    7
370
   25
100
AcDbSpline
210
0
220
0
230
0
 70
    8
 71
    3
 72
   12
 73
    8
 74
    0
 42
1e-007
 43
1e-007
 40
0
 40
0
 40
0
 40
0
 40
0.5000000000000016
 40
0.5000000000000016
 40
0.7500000000000008
 40
0.7500000000000008
 40
1
 40
1
 40
1
 40
1
 10
-47.73694333739287
 20
8.872261750612106
 30
0
 10
-47.80450266383927
 20
8.872105655602335
 30
0
 10
-47.87243774194481
 20
8.874196879070269
 30
0
 10
-47.97084919729289
 20
8.849372935561876
 30
0
 10
-48.0059949959341
 20
8.833865662398972
 30
0
 10
-48.03855149569314
 20
8.771710149616453
 30
0
 10
-48.04168640740482
 20
8.736277141665727
 30
0
 10
-48.0469149823833
 20
8.70185055808801
 30
0
  0
SPLINE
  5
BA
100
AcDbEntity
  8
0
  6
CONTINUOUS
 62
    7
370
   25
100
AcDbSpline
210
0
220
0
230
0
 70
    8
 71
    3
 72
   12
 73
    8
 74
    0
 42
1e-007
 43
1e-007
 40
0
 40
0
 40
0
 40
0
 40
0.4999999999999818
 40
0.4999999999999818
 40
0.7499999999999909
 40
0.7499999999999909
 40
1
 40
1
 40
1
 40
1
 10
-48.04726970235573
 20
5.559581229080183
 30
0
 10
-48.01352769823968
 20
5.500753016696909
 30
0
 10
-47.98127272786845
 20
5.440601214212209
 30
0
 10
-47.91086811202491
 20
5.367338589690109
 30
0
 10
-47.88002094990884
 20
5.344649987773383
 30
0
 10
-47.80997227162786
 20
5.347281811625318
 30
0
 10
-47.77798151819619
 20
5.362181852140282
 30
0
 10
-47.74565656076929
 20
5.374727636713906
 30
0
  0
SPLINE
  5
BB
100
AcDbEntity
  8
0
  6
CONTINUOUS
 62
    7
370
   25
100
AcDbSpline
210
0
220
0
230
0
 70
    8
 71
    3
 72
    8
 73
    4
 74
    0
 42
1e-007
 43
1e-007
 40
0
 40
0
 40
0
 40
0
 40
1
 40
1
 40
1
 40
1
 10
-48.04691498238329
 20
8.701850558088008
 30
0
 10
-48.04334333503935
 20
7.654716387505634
 30
0
 10
-48.04344862796775
 20
6.606726633016496
 30
0
 10
-48.04726970235573
 20
5.559581229080183
 30
0
  0
SPLINE
  5
BC
100
AcDbEntity
  8
0
  6
CONTINUOUS
 62
    7
370
   25
100
AcDbSpline
210
0
220
0
230
0
 70
    8
 71
    3
 72
   12
 73
    8
 74
    0
 42
1e-007
 43
1e-007
 40
0
 40
0
 40
0
 40
0
 40
0.5000000000000068
 40
0.5000000000000068
 40
0.7500000000000033
 40
0.7500000000000033
 40
1
 40
1
 40
1
 40
1
 10
-54.28511627087128
 20
11.9254553942785
 30
0
 10
-54.28496017586151
 20
11.85789606783211
 30
0
 10
-54.28705139932937
 20
11.78996098972659
 30
0
 10
-54.26222745582104
 20
11.6915495343785
 30
0
 10
-54.24672018265819
 20
11.65640373573727
 30
0
 10
-54.18456466987567
 20
11.62384723597821
 30
0
 10
-54.14913166192495
 20
11.62071232426654
 30
0
 10
-54.11470507834724
 20
11.61548374928808
 30
0
  0
SPLINE
  5
BD
100
AcDbEntity
  8
0
  6
CONTINUOUS
 62
    7
370
   25
100
AcDbSpline
210
0
220
0
230
0
 70
    8
 71
    3
 72
   12
 73
    8
 74
    0
 42
1e-007
 43
1e-007
 40
0
 40
0
 40
0
 40
0
 40
0.5000000000000178
 40
0.5000000000000178
 40
0.7500000000000089
 40
0.7500000000000089
 40
1
 40
1
 40
1
 40
1
 10
-50.97243574933933
 20
11.61512902931565
 30
0
 10
-50.91360753695602
 20
11.64887103343172
 30
0
 10
-50.8534557344713
 20
11.68112600380292
 30
0
 10
-50.78019310994923
 20
11.75153061964654
 30
0
 10
-50.75750450803249
 20
11.78237778176266
 30
0
 10
-50.76013633188455
 20
11.85242646004366
 30
0
 10
-50.77503637239949
 20
11.88441721347532
 30
0
 10
-50.78758215697312
 20
11.9167421709022
 30
0
  0
SPLINE
  5
BE
100
AcDbEntity
  8
0
  6
CONTINUOUS
 62
    7
370
   25
100
AcDbSpline
210
0
220
0
230
0
 70
    8
 71
    3
 72
    8
 73
    4
 74
    0
 42
1e-007
 43
1e-007
 40
0
 40
0
 40
0
 40
0
 40
1
 40
1
 40
1
 40
1
 10
-54.11470507834723
 20
11.61548374928808
 30
0
 10
-53.06757090776483
 20
11.61905539663204
 30
0
 10
-52.01958115327567
 20
11.61895010370364
 30
0
 10
-50.97243574933933
 20
11.61512902931565
 30
0
  0
SPLINE
  5
BF
100
AcDbEntity
  8
0
  6
CONTINUOUS
 62
    7
370
   25
100
AcDbSpline
210
0
220
0
230
0
 70
    8
 71
    3
 72
   12
 73
    8
 74
    0
 42
1e-007
 43
1e-007
 40
0
 40
0
 40
0
 40
0
 40
0.4999999999999932
 40
0.4999999999999932
 40
0.7499999999999966
 40
0.7499999999999966
 40
1
 40
1
 40
1
 40
1
 10
-50.79013698105926
 20
2.32408881713374
 30
0
 10
-50.79029307606904
 20
2.391648143580132
 30
0
 10
-50.788201852601
 20
2.459583221685685
 30
0
 10
-50.81302579610956
 20
2.557994677033773
 30
0
 10
-50.82853306927236
 20
2.593140475674979
 30
0
 10
-50.89068858205491
 20
2.625696975434014
 30
0
 10
-50.9261215900056
 20
2.62883188714568
 30
0
 10
-50.96054817358329
 20
2.634060462124142
 30
0
  0
SPLINE
  5
C0
100
AcDbEntity
  8
0
  6
CONTINUOUS
 62
    7
370
   25
100
AcDbSpline
210
0
220
0
230
0
 70
    8
 71
    3
 72
   12
 73
    8
 74
    0
 42
1e-007
 43
1e-007
 40
0
 40
0
 40
0
 40
0
 40
0.4999999999999989
 40
0.4999999999999989
 40
0.7499999999999994
 40
0.7499999999999994
 40
1
 40
1
 40
1
 40
1
 10
-54.10281750259119
 20
2.634415182096568
 30
0
 10
-54.16164571497447
 20
2.600673177980507
 30
0
 10
-54.22179751745918
 20
2.568418207609273
 30
0
 10
-54.29506014198129
 20
2.498013591765699
 30
0
 10
-54.31774874389799
 20
2.467166429649592
 30
0
 10
-54.31511692004602
 20
2.397117751368619
 30
0
 10
-54.30021687953104
 20
2.365126997936968
 30
0
 10
-54.28767109495744
 20
2.332802040510089
 30
0
  0
SPLINE
  5
C1
100
AcDbEntity
  8
0
  6
CONTINUOUS
 62
    7
370
   25
100
AcDbSpline
210
0
220
0
230
0
 70
    8
 71
    3
 72
    8
 73
    4
 74
    0
 42
1e-007
 43
1e-007
 40
0
 40
0
 40
0
 40
0
 40
1
 40
1
 40
1
 40
1
 10
-50.96054817358329
 20
2.634060462124143
 30
0
 10
-52.00768234416569
 20
2.630488814780166
 30
0
 10
-53.05567209865485
 20
2.630594107708575
 30
0
 10
-54.10281750259119
 20
2.634415182096571
 30
0
  0
SPLINE
  5
C2
100
AcDbEntity
  8
0
  6
CONTINUOUS
 62
    7
370
   25
100
AcDbSpline
210
0
220
0
230
0
 70
    8
 71
    3
 72
   23
 73
   19
 74
    0
 42
1e-007
 43
1e-007
 40
0
 40
0
 40
0
 40
0
 40
1.63649063087e-005
 40
1.63649063087e-005
 40
1.63649063087e-005
 40
3.2714420127e-005
 40
3.2714420127e-005
 40
3.2714420127e-005
 40
4.93042327008e-005
 40
4.93042327008e-005
 40
4.93042327008e-005
 40
6.64371311761e-005
 40
6.64371311761e-005
 40
6.64371311761e-005
 40
7.74762304292e-005
 40
7.74762304292e-005
 40
7.74762304292e-005
 40
7.94766987868e-005
 40
7.94766987868e-005
 40
7.94766987868e-005
 40
7.94766987868e-005
 10
-54.11318891513182
 20
2.692789949264198
 30
0
 10
-54.11302176677003
 20
2.6932542900593
 30
0
 10
-54.11309809194101
 20
2.694642275500013
 30
0
 10
-54.11340889136128
 20
2.696828445046124
 30
0
 10
-54.11371952766883
 20
2.699013467254015
 30
0
 10
-54.1142721868378
 20
2.702052857014487
 30
0
 10
-54.11501652172026
 20
2.705682714526053
 30
0
 10
-54.11577194021991
 20
2.709366622911865
 30
0
 10
-54.11674416379198
 20
2.713754251041143
 30
0
 10
-54.11785198787236
 20
2.718487881995049
 30
0
 10
-54.11899572477619
 20
2.723374965158316
 30
0
 10
-54.12031397294029
 20
2.728759360214423
 30
0
 10
-54.12170109446777
 20
2.734214686452751
 30
0
 10
-54.1226018885565
 20
2.737757364963782
 30
0
 10
-54.12354376647367
 20
2.741378577883817
 30
0
 10
-54.12449620197333
 20
2.744961419993502
 30
0
 10
-54.12466739896514
 20
2.745605423489312
 30
0
 10
-54.12483912834647
 20
2.746248931401125
 30
0
 10
-54.12501121068226
 20
2.74689127140787
 30
0
  0
SPLINE
  5
C3
100
AcDbEntity
  8
0
  6
CONTINUOUS
 62
    7
370
   25
100
AcDbSpline
210
0
220
0
230
0
 70
    8
 71
    3
 72
   12
 73
    8
 74
    0
 42
1e-007
 43
1e-007
 40
0
 40
0
 40
0
 40
0
 40
0.4999999999999871
 40
0.4999999999999871
 40
0.7499999999999936
 40
0.7499999999999936
 40
1
 40
1
 40
1
 40
1
 10
-54.11319645714587
 20
2.692786015912038
 30
0
 10
-54.18433551321969
 20
2.652093200972401
 30
0
 10
-54.25754731897332
 20
2.614219730181461
 30
0
 10
-54.3423917926681
 20
2.523440290801707
 30
0
 10
-54.36402092634489
 20
2.483465698279073
 30
0
 10
-54.36237499672687
 20
2.398726607893828
 30
0
 10
-54.34460255035134
 20
2.357976262883746
 30
0
 10
-54.32974488008435
 20
2.319783728620775
 30
0
  0
SPLINE
  5
C4
100
AcDbEntity
  8
0
  6
CONTINUOUS
 62
    7
370
   25
100
AcDbSpline
210
0
220
0
230
0
 70
    8
 71
    3
 72
   23
 73
   19
 74
    0
 42
1e-007
 43
1e-007
 40
0
 40
0
 40
0
 40
0
 40
1.63649063087e-005
 40
1.63649063087e-005
 40
1.63649063087e-005
 40
3.2714420127e-005
 40
3.2714420127e-005
 40
3.2714420127e-005
 40
4.93042327008e-005
 40
4.93042327008e-005
 40
4.93042327008e-005
 40
6.64371311761e-005
 40
6.64371311761e-005
 40
6.64371311761e-005
 40
7.74762304292e-005
 40
7.74762304292e-005
 40
7.74762304292e-005
 40
7.94766987868e-005
 40
7.94766987868e-005
 40
7.94766987868e-005
 40
7.94766987868e-005
 10
-50.96206433679872
 20
11.55675426214802
 30
0
 10
-50.96223148516051
 20
11.55628992135292
 30
0
 10
-50.96215515998952
 20
11.55490193591221
 30
0
 10
-50.96184436056925
 20
11.5527157663661
 30
0
 10
-50.96153372426171
 20
11.55053074415821
 30
0
 10
-50.96098106509272
 20
11.54749135439774
 30
0
 10
-50.96023673021026
 20
11.54386149688617
 30
0
 10
-50.9594813117106
 20
11.54017758850036
 30
0
 10
-50.95850908813853
 20
11.53578996037108
 30
0
 10
-50.95740126405815
 20
11.53105632941718
 30
0
 10
-50.95625752715432
 20
11.52616924625391
 30
0
 10
-50.95493927899025
 20
11.5207848511978
 30
0
 10
-50.95355215746279
 20
11.51532952495947
 30
0
 10
-50.95265136337407
 20
11.51178684644845
 30
0
 10
-50.9517094854567
 20
11.50816563352848
 30
0
 10
-50.95075704995742
 20
11.50458279141872
 30
0
 10
-50.95058585296568
 20
11.50393878792289
 30
0
 10
-50.95041412358414
 20
11.50329528001113
 30
0
 10
-50.95024204124828
 20
11.5026529400044
 30
0
  0
SPLINE
  5
C5
100
AcDbEntity
  8
0
  6
CONTINUOUS
 62
    7
370
   25
100
AcDbSpline
210
0
220
0
230
0
 70
    8
 71
    3
 72
   12
 73
    8
 74
    0
 42
1e-007
 43
1e-007
 40
0
 40
0
 40
0
 40
0
 40
0.4999999999999862
 40
0.4999999999999862
 40
0.7499999999999931
 40
0.7499999999999931
 40
1
 40
1
 40
1
 40
1
 10
-50.96205679478465
 20
11.55675819550018
 30
0
 10
-50.89091773871995
 20
11.59745101045558
 30
0
 10
-50.81770593295716
 20
11.63532448123071
 30
0
 10
-50.73286145926244
 20
11.72610392061051
 30
0
 10
-50.71123232558561
 20
11.76607851313311
 30
0
 10
-50.71287825520363
 20
11.85081760351835
 30
0
 10
-50.73065070157426
 20
11.89156794853037
 30
0
 10
-50.74550837184617
 20
11.92976048279145
 30
0
  0
SPLINE
  5
C6
100
AcDbEntity
  8
0
  6
CONTINUOUS
 62
    7
370
   25
100
AcDbSpline
210
0
220
0
230
0
 70
    8
 71
    3
 72
   23
 73
   19
 74
    0
 42
1e-007
 43
1e-007
 40
0
 40
0
 40
0
 40
0
 40
1.63649063087e-005
 40
1.63649063087e-005
 40
1.63649063087e-005
 40
3.2714420127e-005
 40
3.2714420127e-005
 40
3.2714420127e-005
 40
4.93042327008e-005
 40
4.93042327008e-005
 40
4.93042327008e-005
 40
6.64371311761e-005
 40
6.64371311761e-005
 40
6.64371311761e-005
 40
7.74762304291e-005
 40
7.74762304291e-005
 40
7.74762304291e-005
 40
7.94766987867e-005
 40
7.94766987867e-005
 40
7.94766987867e-005
 40
7.94766987867e-005
 10
-48.10564446952336
 20
5.549209816539536
 30
0
 10
-48.10610881031845
 20
5.549376964901326
 30
0
 10
-48.10749679575917
 20
5.549300639730349
 30
0
 10
-48.10968296530528
 20
5.548989840310083
 30
0
 10
-48.11186798751317
 20
5.548679204002532
 30
0
 10
-48.11490737727365
 20
5.548126544833565
 30
0
 10
-48.11853723478522
 20
5.547382209951106
 30
0
 10
-48.12222114317102
 20
5.546626791451453
 30
0
 10
-48.1266087713003
 20
5.54565456787939
 30
0
 10
-48.13134240225421
 20
5.544546743799015
 30
0
 10
-48.13622948541747
 20
5.543403006895189
 30
0
 10
-48.14161388047358
 20
5.542084758731079
 30
0
 10
-48.14706920671191
 20
5.540697637203615
 30
0
 10
-48.15061188522292
 20
5.539796843114901
 30
0
 10
-48.154233098143
 20
5.538854965198023
 30
0
 10
-48.15781594025248
 20
5.537902529697663
 30
0
 10
-48.15845994374825
 20
5.537731332705724
 30
0
 10
-48.15910345166017
 20
5.537559603324794
 30
0
 10
-48.15974579166694
 20
5.537387520989148
 30
0
  0
SPLINE
  5
C7
100
AcDbEntity
  8
0
  6
CONTINUOUS
 62
    7
370
   25
100
AcDbSpline
210
0
220
0
230
0
 70
    8
 71
    3
 72
   12
 73
    8
 74
    0
 42
1e-007
 43
1e-007
 40
0
 40
0
 40
0
 40
0
 40
0.5000000000000018
 40
0.5000000000000018
 40
0.7500000000000009
 40
0.7500000000000009
 40
1
 40
1
 40
1
 40
1
 10
-48.10564053617119
 20
5.549202274525491
 30
0
 10
-48.0649477212326
 20
5.478063218451071
 30
0
 10
-48.0270742504407
 20
5.404851412697991
 30
0
 10
-47.93629481106084
 20
5.32000693900329
 30
0
 10
-47.89632021853824
 20
5.298377805326453
 30
0
 10
-47.81158112815302
 20
5.300023734944493
 30
0
 10
-47.77083078314232
 20
5.317796181318454
 30
0
 10
-47.73263824887994
 20
5.332653851587004
 30
0
  0
SPLINE
  5
C8
100
AcDbEntity
  8
0
  6
CONTINUOUS
 62
    7
370
   25
100
AcDbSpline
210
0
220
0
230
0
 70
    8
 71
    3
 72
   23
 73
   19
 74
    0
 42
1e-007
 43
1e-007
 40
0
 40
0
 40
0
 40
0
 40
1.63649063087e-005
 40
1.63649063087e-005
 40
1.63649063087e-005
 40
3.2714420127e-005
 40
3.2714420127e-005
 40
3.2714420127e-005
 40
4.93042327008e-005
 40
4.93042327008e-005
 40
4.93042327008e-005
 40
6.64371311761e-005
 40
6.64371311761e-005
 40
6.64371311761e-005
 40
7.74762304291e-005
 40
7.74762304291e-005
 40
7.74762304291e-005
 40
7.94766987867e-005
 40
7.94766987867e-005
 40
7.94766987867e-005
 40
7.94766987867e-005
 10
-56.96960878240716
 20
8.700334394872712
 30
0
 10
-56.96914444161206
 20
8.700167246510921
 30
0
 10
-56.96775645617134
 20
8.700243571681909
 30
0
 10
-56.96557028662523
 20
8.700554371102177
 30
0
 10
-56.96338526441734
 20
8.70086500740973
 30
0
 10
-56.96034587465688
 20
8.701417666578697
 30
0
 10
-56.95671601714531
 20
8.70216200146116
 30
0
 10
-56.9530321087595
 20
8.702917419960814
 30
0
 10
-56.94864448063022
 20
8.703889643532866
 30
0
 10
-56.94391084967631
 20
8.704997467613248
 30
0
 10
-56.93902376651305
 20
8.706141204517078
 30
0
 10
-56.93363937145693
 20
8.707459452681176
 30
0
 10
-56.92818404521861
 20
8.708846574208648
 30
0
 10
-56.9246413667076
 20
8.709747368297368
 30
0
 10
-56.92102015378755
 20
8.7106892462144
 30
0
 10
-56.91743731167797
 20
8.711641681714331
 30
0
 10
-56.91679330818217
 20
8.711812878706194
 30
0
 10
-56.91614980027032
 20
8.711984608087382
 30
0
 10
-56.91550746026356
 20
8.712156690423118
 30
0
  0
SPLINE
  5
C9
100
AcDbEntity
  8
0
  6
CONTINUOUS
 62
    7
370
   25
100
AcDbSpline
210
0
220
0
230
0
 70
    8
 71
    3
 72
   12
 73
    8
 74
    0
 42
1e-007
 43
1e-007
 40
0
 40
0
 40
0
 40
0
 40
0.5000000000000151
 40
0.5000000000000151
 40
0.7500000000000075
 40
0.7500000000000075
 40
1
 40
1
 40
1
 40
1
 10
-56.96961271575932
 20
8.700341936886762
 30
0
 10
-57.01030553072348
 20
8.771480992946445
 30
0
 10
-57.04817900148981
 20
8.844692798714286
 30
0
 10
-57.13895844086966
 20
8.92953727240897
 30
0
 10
-57.17893303339227
 20
8.951166406085814
 30
0
 10
-57.26367212377748
 20
8.949520476467761
 30
0
 10
-57.30442246878759
 20
8.931748030092194
 30
0
 10
-57.34261500305058
 20
8.916890359825254
 30
0
  0
SPLINE
  5
CA
100
AcDbEntity
  8
0
  6
CONTINUOUS
 62
    7
370
   25
100
AcDbSpline
210
0
220
0
230
0
 70
    8
 71
    3
 72
   14
 73
   10
 74
    0
 42
1e-007
 43
1e-007
 40
0
 40
0
 40
0
 40
0
 40
0.25
 40
0.25
 40
0.5
 40
0.5
 40
0.75
 40
0.75
 40
1
 40
1
 40
1
 40
1
 10
-54.33198325690394
 20
11.93019819194339
 30
0
 10
-54.33199539345879
 20
11.88903590106565
 30
0
 10
-54.33167202774598
 20
11.84779633256364
 30
0
 10
-54.32762257717349
 20
11.7658376963858
 30
0
 10
-54.32312005646354
 20
11.72522706132362
 30
0
 10
-54.29824276959652
 20
11.64637140138592
 30
0
 10
-54.27416807737743
 20
11.60822643576432
 30
0
 10
-54.19993288213187
 20
11.56822291928292
 30
0
 10
-54.15633145646035
 20
11.56331903674272
 30
0
 10
-54.11552324789724
 20
11.55714639509049
 30
0
  0
SPLINE
  5
CB
100
AcDbEntity
  8
0
  6
CONTINUOUS
 62
    7
370
   25
100
AcDbSpline
210
0
220
0
230
0
 70
    8
 71
    3
 72
   23
 73
   19
 74
    0
 42
1e-007
 43
1e-007
 40
0
 40
0
 40
0
 40
0
 40
1.67518178184e-005
 40
1.67518178184e-005
 40
1.67518178184e-005
 40
3.35022570506e-005
 40
3.35022570506e-005
 40
3.35022570506e-005
 40
5.02745924393e-005
 40
5.02745924393e-005
 40
5.02745924393e-005
 40
6.70943379841e-005
 40
6.70943379841e-005
 40
6.70943379841e-005
 40
7.46138801279e-005
 40
7.46138801279e-005
 40
7.46138801279e-005
 40
7.82334826271e-005
 40
7.82334826271e-005
 40
7.82334826271e-005
 40
7.82334826271e-005
 10
-54.11552328929911
 20
11.55714651136743
 30
0
 10
-54.11535233752402
 20
11.55667173840265
 30
0
 10
-54.11525265852603
 20
11.55523156860992
 30
0
 10
-54.11523244128161
 20
11.55294621027721
 30
0
 10
-54.11521222496324
 20
11.55066095662679
 30
0
 10
-54.115270889163
 20
11.54746786352163
 30
0
 10
-54.11540340462803
 20
11.54363248899672
 30
0
 10
-54.11553609551822
 20
11.53979203716875
 30
0
 10
-54.11574645956135
 20
11.53520225552612
 30
0
 10
-54.11601698003881
 20
11.53024267068716
 30
0
 10
-54.11628825706807
 20
11.52526921561244
 30
0
 10
-54.11662747298541
 20
11.5197872705676
 30
0
 10
-54.11700657641666
 20
11.51424900338844
 30
0
 10
-54.11717799373127
 20
11.51174479263962
 30
0
 10
-54.11735891833829
 20
11.50920696340009
 30
0
 10
-54.11754625648788
 20
11.50667887555533
 30
0
 10
-54.11763541455971
 20
11.5054757066432
 30
0
 10
-54.11772619692171
 20
11.5042723325058
 30
0
 10
-54.11781825124015
 20
11.50307342305507
 30
0
  0
SPLINE
  5
CC
100
AcDbEntity
  8
0
  6
CONTINUOUS
 62
    7
370
   25
100
AcDbSpline
210
0
220
0
230
0
 70
    8
 71
    3
 72
   14
 73
   10
 74
    0
 42
1e-007
 43
1e-007
 40
0
 40
0
 40
0
 40
0
 40
0.25
 40
0.25
 40
0.5
 40
0.5
 40
0.75
 40
0.75
 40
1
 40
1
 40
1
 40
1
 10
-57.34305271220256
 20
5.330415474767489
 30
0
 10
-57.30189042132483
 20
5.330403338214358
 30
0
 10
-57.26065085282283
 20
5.33072670392542
 30
0
 10
-57.17869221664501
 20
5.334776154497959
 30
0
 10
-57.13808158158284
 20
5.339278675207878
 30
0
 10
-57.05922592164514
 20
5.36415596207488
 30
0
 10
-57.02108095602353
 20
5.388230654293952
 30
0
 10
-56.98107743954208
 20
5.462465849539521
 30
0
 10
-56.97617355701934
 20
5.506067275213773
 30
0
 10
-56.97000091534967
 20
5.546875483774169
 30
0
  0
SPLINE
  5
CD
100
AcDbEntity
  8
0
  6
CONTINUOUS
 62
    7
370
   25
100
AcDbSpline
210
0
220
0
230
0
 70
    8
 71
    3
 72
   23
 73
   19
 74
    0
 42
1e-007
 43
1e-007
 40
0
 40
0
 40
0
 40
0
 40
1.67518178184e-005
 40
1.67518178184e-005
 40
1.67518178184e-005
 40
3.35022570506e-005
 40
3.35022570506e-005
 40
3.35022570506e-005
 40
5.02745924393e-005
 40
5.02745924393e-005
 40
5.02745924393e-005
 40
6.70943379841e-005
 40
6.70943379841e-005
 40
6.70943379841e-005
 40
7.461388012800001e-005
 40
7.461388012800001e-005
 40
7.461388012800001e-005
 40
7.82334826259e-005
 40
7.82334826259e-005
 40
7.82334826259e-005
 40
7.82334826259e-005
 10
-56.97000103162659
 20
5.546875442372337
 30
0
 10
-56.96952625866182
 20
5.547046394147425
 30
0
 10
-56.96808608886909
 20
5.547146073145429
 30
0
 10
-56.96580073053638
 20
5.547166290389862
 30
0
 10
-56.96351547688596
 20
5.547186506708232
 30
0
 10
-56.96032238378079
 20
5.547127842508482
 30
0
 10
-56.95648700925588
 20
5.546995327043456
 30
0
 10
-56.95264655742791
 20
5.546862636153275
 30
0
 10
-56.94805677578529
 20
5.546652272110106
 30
0
 10
-56.94309719094632
 20
5.546381751632651
 30
0
 10
-56.9381237358716
 20
5.546110474603405
 30
0
 10
-56.93264179082676
 20
5.545771258685992
 30
0
 10
-56.9271035236476
 20
5.54539215525473
 30
0
 10
-56.92459931289876
 20
5.545220737940112
 30
0
 10
-56.9220614836592
 20
5.545039813333119
 30
0
 10
-56.91953339581443
 20
5.544852475183485
 30
0
 10
-56.91833022690274
 20
5.544763317111673
 30
0
 10
-56.91712685276578
 20
5.544672534749771
 30
0
 10
-56.91592794331548
 20
5.544580480431382
 30
0
  0
SPLINE
  5
CE
100
AcDbEntity
  8
0
  6
CONTINUOUS
 62
    7
370
   25
100
AcDbSpline
210
0
220
0
230
0
 70
    8
 71
    3
 72
   14
 73
   10
 74
    0
 42
1e-007
 43
1e-007
 40
0
 40
0
 40
0
 40
0
 40
0.25
 40
0.25
 40
0.5
 40
0.5
 40
0.75
 40
0.75
 40
1
 40
1
 40
1
 40
1
 10
-47.73220053972797
 20
8.919128736644767
 30
0
 10
-47.7733628306057
 20
8.919140873197776
 30
0
 10
-47.81460239910773
 20
8.918817507486843
 30
0
 10
-47.89656103528552
 20
8.9147680569143
 30
0
 10
-47.93717167034768
 20
8.910265536204388
 30
0
 10
-48.01602733028537
 20
8.885388249337394
 30
0
 10
-48.05417229590699
 20
8.861313557118342
 30
0
 10
-48.09417581238845
 20
8.787078361872759
 30
0
 10
-48.09907969493882
 20
8.743476936202752
 30
0
 10
-48.10525233658088
 20
8.702668727638082
 30
0
  0
SPLINE
  5
CF
100
AcDbEntity
  8
0
  6
CONTINUOUS
 62
    7
370
   25
100
AcDbSpline
210
0
220
0
230
0
 70
    8
 71
    3
 72
   23
 73
   19
 74
    0
 42
1e-007
 43
1e-007
 40
0
 40
0
 40
0
 40
0
 40
1.67518178184e-005
 40
1.67518178184e-005
 40
1.67518178184e-005
 40
3.35022570506e-005
 40
3.35022570506e-005
 40
3.35022570506e-005
 40
5.02745924393e-005
 40
5.02745924393e-005
 40
5.02745924393e-005
 40
6.70943379841e-005
 40
6.70943379841e-005
 40
6.70943379841e-005
 40
7.461388012800001e-005
 40
7.461388012800001e-005
 40
7.461388012800001e-005
 40
7.82334826263e-005
 40
7.82334826263e-005
 40
7.82334826263e-005
 40
7.82334826263e-005
 10
-48.10525222030394
 20
8.702668769039994
 30
0
 10
-48.10572699326871
 20
8.702497817264909
 30
0
 10
-48.10716716306144
 20
8.702398138266926
 30
0
 10
-48.10945252139415
 20
8.702377921022491
 30
0
 10
-48.11173777504458
 20
8.702357704704118
 30
0
 10
-48.11493086814974
 20
8.702416368903803
 30
0
 10
-48.11876624267465
 20
8.702548884368825
 30
0
 10
-48.12260669450262
 20
8.702681575259005
 30
0
 10
-48.12719647614523
 20
8.702891939302363
 30
0
 10
-48.1321560609842
 20
8.703162459779868
 30
0
 10
-48.13712951605892
 20
8.703433736809169
 30
0
 10
-48.14261146110377
 20
8.703772952726286
 30
0
 10
-48.14814972828294
 20
8.704152056157501
 30
0
 10
-48.15065393903178
 20
8.704323473472096
 30
0
 10
-48.15319176827134
 20
8.704504398079084
 30
0
 10
-48.15571985611614
 20
8.704691736228561
 30
0
 10
-48.15692302502796
 20
8.70478089430031
 30
0
 10
-48.15812639916503
 20
8.704871676662446
 30
0
 10
-48.15932530861546
 20
8.704963730980921
 30
0
  0
SPLINE
  5
D0
100
AcDbEntity
  8
0
  6
CONTINUOUS
 62
    7
370
   25
100
AcDbSpline
210
0
220
0
230
0
 70
    8
 71
    3
 72
   14
 73
   10
 74
    0
 42
1e-007
 43
1e-007
 40
0
 40
0
 40
0
 40
0
 40
0.25
 40
0.25
 40
0.5
 40
0.5
 40
0.75
 40
0.75
 40
1
 40
1
 40
1
 40
1
 10
-50.74326999502658
 20
2.31934601946883
 30
0
 10
-50.74325785848121
 20
2.360508310346537
 30
0
 10
-50.74358122418455
 20
2.401747878848553
 30
0
 10
-50.74763067475703
 20
2.483706515026378
 30
0
 10
-50.75213319546697
 20
2.524317150088539
 30
0
 10
-50.77701048233397
 20
2.603172810026217
 30
0
 10
-50.80108517455302
 20
2.641317775647841
 30
0
 10
-50.87532036979864
 20
2.681321292129313
 30
0
 10
-50.91892179547047
 20
2.686225174667603
 30
0
 10
-50.95973000403328
 20
2.692397816321725
 30
0
  0
SPLINE
  5
D1
100
AcDbEntity
  8
0
  6
CONTINUOUS
 62
    7
370
   25
100
AcDbSpline
210
0
220
0
230
0
 70
    8
 71
    3
 72
   23
 73
   19
 74
    0
 42
1e-007
 43
1e-007
 40
0
 40
0
 40
0
 40
0
 40
1.67518178184e-005
 40
1.67518178184e-005
 40
1.67518178184e-005
 40
3.35022570506e-005
 40
3.35022570506e-005
 40
3.35022570506e-005
 40
5.02745924393e-005
 40
5.02745924393e-005
 40
5.02745924393e-005
 40
6.70943379841e-005
 40
6.70943379841e-005
 40
6.70943379841e-005
 40
7.461388012800001e-005
 40
7.461388012800001e-005
 40
7.461388012800001e-005
 40
7.82334826269e-005
 40
7.82334826269e-005
 40
7.82334826269e-005
 40
7.82334826269e-005
 10
-50.95972996263141
 20
2.692397700044794
 30
0
 10
-50.9599009144065
 20
2.692872473009568
 30
0
 10
-50.96000059340449
 20
2.6943126428023
 30
0
 10
-50.96002081064892
 20
2.696598001135012
 30
0
 10
-50.96004102696728
 20
2.698883254785433
 30
0
 10
-50.95998236276753
 20
2.702076347890594
 30
0
 10
-50.95984984730249
 20
2.705911722415504
 30
0
 10
-50.9597171564123
 20
2.709752174243471
 30
0
 10
-50.95950679236913
 20
2.714341955886097
 30
0
 10
-50.95923627189167
 20
2.719301540725067
 30
0
 10
-50.95896499486241
 20
2.724274995799786
 30
0
 10
-50.95862577894516
 20
2.729756940844627
 30
0
 10
-50.95824667551395
 20
2.735295208023797
 30
0
 10
-50.95807525819937
 20
2.737799418772649
 30
0
 10
-50.95789433359233
 20
2.740337248012213
 30
0
 10
-50.95770699544297
 20
2.742865335857022
 30
0
 10
-50.95761783737127
 20
2.744068504769038
 30
0
 10
-50.95752705500893
 20
2.745271878906277
 30
0
 10
-50.95743500069037
 20
2.746470788356878
 30
0
  0
SPLINE
  5
D2
100
AcDbEntity
  8
0
  6
CONTINUOUS
 62
    7
370
   25
100
AcDbSpline
210
0
220
0
230
0
 70
    8
 71
    3
 72
   14
 73
   10
 74
    0
 42
1e-007
 43
1e-007
 40
0
 40
0
 40
0
 40
0
 40
0.25
 40
0.25
 40
0.5
 40
0.5
 40
0.75
 40
0.75
 40
1
 40
1
 40
1
 40
1
 10
-57.34684176656611
 20
8.918466817343475
 30
0
 10
-57.30766415952252
 20
8.933727978087534
 30
0
 10
-57.26847376536391
 20
8.950930800784414
 30
0
 10
-57.18379090186162
 20
8.953004954650178
 30
0
 10
-57.14395491204223
 20
8.931744321427017
 30
0
 10
-57.08331310879291
 20
8.875397610083493
 30
0
 10
-57.05929318115859
 20
8.842331104181682
 30
0
 10
-57.01484566347251
 20
8.773404662705639
 30
0
 10
-56.99472071497414
 20
8.738356334998727
 30
0
 10
-56.97386332105729
 20
8.701853025896535
 30
0
  0
SPLINE
  5
D3
100
AcDbEntity
  8
0
  6
CONTINUOUS
 62
    7
370
   25
100
AcDbSpline
210
0
220
0
230
0
 70
    8
 71
    3
 72
   14
 73
   10
 74
    0
 42
1e-007
 43
1e-007
 40
0
 40
0
 40
0
 40
0
 40
0.25
 40
0.25
 40
0.5
 40
0.5
 40
0.75
 40
0.75
 40
1
 40
1
 40
1
 40
1
 10
-47.7284114853644
 20
5.331077394068783
 30
0
 10
-47.76758909240807
 20
5.315816233324749
 30
0
 10
-47.80677948656657
 20
5.298613410627863
 30
0
 10
-47.89146235006886
 20
5.296539256762067
 30
0
 10
-47.93129833988826
 20
5.317799889985245
 30
0
 10
-47.99194014313759
 20
5.374146601328745
 30
0
 10
-48.01596007077203
 20
5.407213107230487
 30
0
 10
-48.06040758845788
 20
5.476139548706683
 30
0
 10
-48.08053253695614
 20
5.511187876413448
 30
0
 10
-48.10138993087322
 20
5.547691185515719
 30
0
  0
SPLINE
  5
D4
100
AcDbEntity
  8
0
  6
CONTINUOUS
 62
    7
370
   25
100
AcDbSpline
210
0
220
0
230
0
 70
    8
 71
    3
 72
   14
 73
   10
 74
    0
 42
1e-007
 43
1e-007
 40
0
 40
0
 40
0
 40
0
 40
0.25
 40
0.25
 40
0.5
 40
0.5
 40
0.75
 40
0.75
 40
1
 40
1
 40
1
 40
1
 10
-54.33132133760257
 20
2.315556965105251
 30
0
 10
-54.34658249834656
 20
2.354734572149026
 30
0
 10
-54.36378532104349
 20
2.393924966307451
 30
0
 10
-54.36585947490929
 20
2.478607829809759
 30
0
 10
-54.3445988416861
 20
2.518443819629149
 30
0
 10
-54.28825213034257
 20
2.579085622878441
 30
0
 10
-54.25518562444083
 20
2.603105550512848
 30
0
 10
-54.18625918296468
 20
2.647553068198769
 30
0
 10
-54.15121085525796
 20
2.667678016696867
 30
0
 10
-54.11470754615565
 20
2.688535410614067
 30
0
  0
SPLINE
  5
D5
100
AcDbEntity
  8
0
  6
CONTINUOUS
 62
    7
370
   25
100
AcDbSpline
210
0
220
0
230
0
 70
    8
 71
    3
 72
   14
 73
   10
 74
    0
 42
1e-007
 43
1e-007
 40
0
 40
0
 40
0
 40
0
 40
0.25
 40
0.25
 40
0.5
 40
0.5
 40
0.75
 40
0.75
 40
1
 40
1
 40
1
 40
1
 10
-50.74393191432795
 20
11.93398724630697
 30
0
 10
-50.72867075358375
 20
11.89480963926375
 30
0
 10
-50.71146793088703
 20
11.85561924510478
 30
0
 10
-50.70939377702124
 20
11.77093638160254
 30
0
 10
-50.7306544102444
 20
11.73110039178314
 30
0
 10
-50.78700112158791
 20
11.6704585885338
 30
0
 10
-50.82006762748968
 20
11.64643866089942
 30
0
 10
-50.8889940689658
 20
11.60199114321344
 30
0
 10
-50.92404239667272
 20
11.58186619471496
 30
0
 10
-50.96054570577488
 20
11.56100880079815
 30
0
  0
SPLINE
  5
D6
100
AcDbEntity
  8
0
  6
CONTINUOUS
 62
    7
370
   25
100
AcDbSpline
210
0
220
0
230
0
 70
    8
 71
    3
 72
   14
 73
   10
 74
    0
 42
1e-007
 43
1e-007
 40
0
 40
0
 40
0
 40
0
 40
0.25
 40
0.25
 40
0.5
 40
0.5
 40
0.75
 40
0.75
 40
1
 40
1
 40
1
 40
1
 10
-50.9582170550148
 20
2.688147882430356
 30
0
 10
-50.91650192951635
 20
2.681855516999682
 30
0
 10
-50.87362730500147
 20
2.677122055651574
 30
0
 10
-50.79916184898991
 20
2.63686606724263
 30
0
 10
-50.77511203226269
 20
2.598438080721592
 30
0
 10
-50.75038934380022
 20
2.519454615575588
 30
0
 10
-50.74596330333463
 20
2.478931145099342
 30
0
 10
-50.74198215188259
 20
2.397252098173261
 30
0
 10
-50.74166710781362
 20
2.357194297775255
 30
0
 10
-50.7416919346062
 20
2.315119851393298
 30
0
  0
SPLINE
  5
D7
100
AcDbEntity
  8
0
  6
CONTINUOUS
 62
    7
370
   25
100
AcDbSpline
210
0
220
0
230
0
 70
    8
 71
    3
 72
   14
 73
   10
 74
    0
 42
1e-007
 43
1e-007
 40
0
 40
0
 40
0
 40
0
 40
0.25
 40
0.25
 40
0.5
 40
0.5
 40
0.75
 40
0.75
 40
1
 40
1
 40
1
 40
1
 10
-56.97425084924102
 20
5.545362534755698
 30
0
 10
-56.98054321467464
 20
5.503647409256235
 30
0
 10
-56.9852766760198
 20
5.460772784742439
 30
0
 10
-57.0255326644287
 20
5.386307328730862
 30
0
 10
-57.06396065094974
 20
5.362257512003614
 30
0
 10
-57.14294411609574
 20
5.337534823541144
 30
0
 10
-57.18346758657201
 20
5.333108783075559
 30
0
 10
-57.26514663349813
 20
5.329127631623469
 30
0
 10
-57.30520443389666
 20
5.328812587554332
 30
0
 10
-57.3472788802781
 20
5.3288374143471
 30
0
  0
SPLINE
  5
D8
100
AcDbEntity
  8
0
  6
CONTINUOUS
 62
    7
370
   25
100
AcDbSpline
210
0
220
0
230
0
 70
    8
 71
    3
 72
   14
 73
   10
 74
    0
 42
1e-007
 43
1e-007
 40
0
 40
0
 40
0
 40
0
 40
0.25
 40
0.25
 40
0.5
 40
0.5
 40
0.75
 40
0.75
 40
1
 40
1
 40
1
 40
1
 10
-48.1010024026895
 20
8.704181676656553
 30
0
 10
-48.09471003725982
 20
8.745896802154617
 30
0
 10
-48.08997657591075
 20
8.788771426669813
 30
0
 10
-48.04972058750185
 20
8.863236882681383
 30
0
 10
-48.0112926009808
 20
8.887286699408634
 30
0
 10
-47.93230913583479
 20
8.912009387871128
 30
0
 10
-47.89178566535855
 20
8.916435428336692
 30
0
 10
-47.81010661843244
 20
8.9204165797888
 30
0
 10
-47.77004881803416
 20
8.920731623857826
 30
0
 10
-47.72797437165244
 20
8.92070679706516
 30
0
  0
SPLINE
  5
D9
100
AcDbEntity
  8
0
  6
CONTINUOUS
 62
    7
370
   25
100
AcDbSpline
210
0
220
0
230
0
 70
    8
 71
    3
 72
   14
 73
   10
 74
    0
 42
1e-007
 43
1e-007
 40
0
 40
0
 40
0
 40
0
 40
0.25
 40
0.25
 40
0.5
 40
0.5
 40
0.75
 40
0.75
 40
1
 40
1
 40
1
 40
1
 10
-54.11703619691571
 20
11.56139632898186
 30
0
 10
-54.15875132241495
 20
11.56768869441485
 30
0
 10
-54.20162594692905
 20
11.57242215576066
 30
0
 10
-54.27609140294056
 20
11.61267814416954
 30
0
 10
-54.30014121966779
 20
11.65110613069054
 30
0
 10
-54.3248639081303
 20
11.73008959583655
 30
0
 10
-54.32928994859595
 20
11.77061306631281
 30
0
 10
-54.33327110004787
 20
11.85229211323894
 30
0
 10
-54.33358614411716
 20
11.89234991363764
 30
0
 10
-54.33356131732432
 20
11.93442436001892
 30
0
  0
SPLINE
  5
DA
100
AcDbEntity
  8
0
  6
CONTINUOUS
 62
    7
370
   25
100
AcDbSpline
210
0
220
0
230
0
 70
    8
 71
    3
 72
   12
 73
    8
 74
    0
 42
1e-007
 43
1e-007
 40
0
 40
0
 40
0
 40
0
 40
0.2500000000000033
 40
0.2500000000000033
 40
0.5000000000000067
 40
0.5000000000000067
 40
1
 40
1
 40
1
 40
1
 10
-49.66358945671367
 20
10.73151835441365
 30
0
 10
-49.66358945671366
 20
10.63994255463397
 30
0
 10
-49.64574322293021
 20
10.54977315944551
 30
0
 10
-49.57614741407971
 20
10.38060835808273
 30
0
 10
-49.52443820437411
 20
10.30281017426225
 30
0
 10
-49.33127113676391
 20
10.10847881467375
 30
0
 10
-49.15037594060046
 20
10.03246538532178
 30
0
 10
-48.96717287135814
 20
10.03152752651696
 30
0
  0
SPLINE
  5
DB
100
AcDbEntity
  8
0
  6
CONTINUOUS
 62
    7
370
   25
100
AcDbSpline
210
0
220
0
230
0
 70
    8
 71
    3
 72
   12
 73
    8
 74
    0
 42
1e-007
 43
1e-007
 40
0
 40
0
 40
0
 40
0
 40
0.2500000000000004
 40
0.2500000000000004
 40
0.4999999999999998
 40
0.4999999999999998
 40
1
 40
1
 40
1
 40
1
 10
-55.41358945671367
 20
3.554980551957091
 30
0
 10
-55.41358945671369
 20
3.64686549053736
 30
0
 10
-55.43156412586237
 20
3.737356315642865
 30
0
 10
-55.50161097169902
 20
3.906977434019916
 30
0
 10
-55.55367026539237
 20
3.984963271985997
 30
0
 10
-55.74795916366651
 20
4.179394717507189
 30
0
 10
-55.92981037601115
 20
4.254980551957092
 30
0
 10
-56.11358945671367
 20
4.254980551957091
 30
0
  0
SPLINE
  5
DC
100
AcDbEntity
  8
0
  6
CONTINUOUS
 62
    7
370
   25
100
AcDbSpline
210
0
220
0
230
0
 70
    8
 71
    3
 72
   12
 73
    8
 74
    0
 42
1e-007
 43
1e-007
 40
0
 40
0
 40
0
 40
0
 40
0.2500000000000033
 40
0.2500000000000033
 40
0.5000000000000067
 40
0.5000000000000067
 40
1
 40
1
 40
1
 40
1
 10
-48.96358945671368
 20
4.254980551957091
 30
0
 10
-49.05547234363862
 20
4.25498055195709
 30
0
 10
-49.1459605078654
 20
4.237006882460796
 30
0
 10
-49.31557871494083
 20
4.166963131685657
 30
0
 10
-49.39356398811834
 20
4.114906055597454
 30
0
 10
-49.58799855101825
 20
3.920619652825716
 30
0
 10
-49.66358945671367
 20
3.738763664985203
 30
0
 10
-49.66358945671367
 20
3.55498055195709
 30
0
  0
SPLINE
  5
DD
100
AcDbEntity
  8
0
  6
CONTINUOUS
 62
    7
370
   25
100
AcDbSpline
210
0
220
0
230
0
 70
    8
 71
    3
 72
   12
 73
    8
 74
    0
 42
1e-007
 43
1e-007
 40
0
 40
0
 40
0
 40
0
 40
0.2500000000000008
 40
0.2500000000000008
 40
0.5000000000000017
 40
0.5000000000000017
 40
1
 40
1
 40
1
 40
1
 10
-56.11358945671367
 20
9.98418444188251
 30
0
 10
-56.02170910103897
 20
9.98418444188251
 30
0
 10
-55.93122419672572
 20
10.00215687322719
 30
0
 10
-55.76160944049729
 20
10.07219689246612
 30
0
 10
-55.68362471338665
 20
10.12425137283456
 30
0
 10
-55.48918619057552
 20
10.31853508729966
 30
0
 10
-55.41358945671368
 20
10.50039676301699
 30
0
 10
-55.41358945671367
 20
10.68418444188251
 30
0
  0
SPLINE
  5
DE
100
AcDbEntity
  8
0
  6
CONTINUOUS
 62
    7
370
   25
100
AcDbSpline
210
0
220
0
230
0
 70
    8
 71
    3
 72
    8
 73
    4
 74
    0
 42
1e-007
 43
1e-007
 40
0
 40
0
 40
0
 40
0
 40
1
 40
1
 40
1
 40
1
 10
-54.11552227075453
 20
11.55714663073815
 30
0
 10
-53.06465806068947
 20
11.56014525613167
 30
0
 10
-52.0129294554446
 20
11.56001730108949
 30
0
 10
-50.96206416692743
 20
11.55675474057383
 30
0
  0
SPLINE
  5
DF
100
AcDbEntity
  8
0
  6
CONTINUOUS
 62
    7
370
   25
100
AcDbSpline
210
0
220
0
230
0
 70
    8
 71
    3
 72
    8
 73
    4
 74
    0
 42
1e-007
 43
1e-007
 40
0
 40
0
 40
0
 40
0
 40
1
 40
1
 40
1
 40
1
 10
-48.10525210093322
 20
8.702667750495358
 30
0
 10
-48.10225347537219
 20
7.651803540430352
 30
0
 10
-48.10238143060179
 20
6.600074935185444
 30
0
 10
-48.10564399109754
 20
5.549209646668261
 30
0
  0
SPLINE
  5
E0
100
AcDbEntity
  8
0
  6
CONTINUOUS
 62
    7
370
   25
100
AcDbSpline
210
0
220
0
230
0
 70
    8
 71
    3
 72
    8
 73
    4
 74
    0
 42
1e-007
 43
1e-007
 40
0
 40
0
 40
0
 40
0
 40
1
 40
1
 40
1
 40
1
 10
-50.95973098117599
 20
2.692397580674072
 30
0
 10
-52.01059519124104
 20
2.689398955255313
 30
0
 10
-53.06232379648592
 20
2.689526910328091
 30
0
 10
-54.11318908500309
 20
2.692789470838385
 30
0
  0
SPLINE
  5
E1
100
AcDbEntity
  8
0
  6
CONTINUOUS
 62
    7
370
   25
100
AcDbSpline
210
0
220
0
230
0
 70
    8
 71
    3
 72
    8
 73
    4
 74
    0
 42
1e-007
 43
1e-007
 40
0
 40
0
 40
0
 40
0
 40
1
 40
1
 40
1
 40
1
 10
-56.97000115099732
 20
5.546876460916891
 30
0
 10
-56.97299977637611
 20
6.597740670981946
 30
0
 10
-56.97287182109501
 20
7.649469276226683
 30
0
 10
-56.96960926083297
 20
8.700334564743988
 30
0
  0
SPLINE
  5
E2
100
AcDbEntity
  8
0
  6
CONTINUOUS
 62
    7
370
   25
100
AcDbSpline
210
0
220
0
230
0
 70
    8
 71
    3
 72
   23
 73
   19
 74
    0
 42
1e-007
 43
1e-007
 40
0
 40
0
 40
0
 40
0
 40
1.67518565171e-005
 40
1.67518565171e-005
 40
1.67518565171e-005
 40
3.35023407611e-005
 40
3.35023407611e-005
 40
3.35023407611e-005
 40
5.02746163219e-005
 40
5.02746163219e-005
 40
5.02746163219e-005
 40
6.70942343861e-005
 40
6.70942343861e-005
 40
6.70942343861e-005
 40
7.46425581512e-005
 40
7.46425581512e-005
 40
7.46425581512e-005
 40
7.82501578204e-005
 40
7.82501578204e-005
 40
7.82501578204e-005
 40
7.82501578204e-005
 10
-50.9582170144069
 20
2.688147768339184
 30
0
 10
-50.95805000074404
 20
2.687673284036558
 30
0
 10
-50.95795396072165
 20
2.686233381701268
 30
0
 10
-50.95793688477136
 20
2.683948252635898
 30
0
 10
-50.95791980959985
 20
2.681663227787355
 30
0
 10
-50.95798121259986
 20
2.678470329335669
 30
0
 10
-50.9581161002441
 20
2.674635113659309
 30
0
 10
-50.9582511656239
 20
2.670794844486916
 30
0
 10
-50.95846361483713
 20
2.666205222810579
 30
0
 10
-50.95873607699694
 20
2.661245792841013
 30
0
 10
-50.95900930021813
 20
2.656272509826387
 30
0
 10
-50.9593503846345
 20
2.650790747524006
 30
0
 10
-50.95973137055494
 20
2.645252664098404
 30
0
 10
-50.95990429582933
 20
2.6427389895909
 30
0
 10
-50.96008681219786
 20
2.640191413716964
 30
0
 10
-50.96027578670977
 20
2.637653789090229
 30
0
 10
-50.96036508550504
 20
2.636454649482904
 30
0
 10
-50.96045602946574
 20
2.635255335299621
 30
0
 10
-50.96054817358333
 20
2.634060462123877
 30
0
  0
SPLINE
  5
E3
100
AcDbEntity
  8
0
  6
CONTINUOUS
 62
    7
370
   25
100
AcDbSpline
210
0
220
0
230
0
 70
    8
 71
    3
 72
   23
 73
   19
 74
    0
 42
1e-007
 43
1e-007
 40
0
 40
0
 40
0
 40
0
 40
1.67518565171e-005
 40
1.67518565171e-005
 40
1.67518565171e-005
 40
3.35023407611e-005
 40
3.35023407611e-005
 40
3.35023407611e-005
 40
5.02746163219e-005
 40
5.02746163219e-005
 40
5.02746163219e-005
 40
6.70942343861e-005
 40
6.70942343861e-005
 40
6.70942343861e-005
 40
7.464255815129999e-005
 40
7.464255815129999e-005
 40
7.464255815129999e-005
 40
7.82501578229e-005
 40
7.82501578229e-005
 40
7.82501578229e-005
 40
7.82501578229e-005
 10
-48.10100228859832
 20
8.704181717264522
 30
0
 10
-48.10052780429569
 20
8.704348730927384
 30
0
 10
-48.09908790196042
 20
8.704444770949644
 30
0
 10
-48.09680277289505
 20
8.704461846899918
 30
0
 10
-48.09451774804651
 20
8.704478922071416
 30
0
 10
-48.09132484959481
 20
8.704417519071427
 30
0
 10
-48.08748963391845
 20
8.704282631427173
 30
0
 10
-48.08364936474606
 20
8.704147566047368
 30
0
 10
-48.07905974306971
 20
8.703935116834261
 30
0
 10
-48.07410031310015
 20
8.703662654674439
 30
0
 10
-48.06912703008552
 20
8.703389431453246
 30
0
 10
-48.06364526778314
 20
8.703048347036885
 30
0
 10
-48.05810718435752
 20
8.702667361116589
 30
0
 10
-48.05559350984998
 20
8.702494435842269
 30
0
 10
-48.05304593397602
 20
8.702311919473697
 30
0
 10
-48.05050830934922
 20
8.702122944962159
 30
0
 10
-48.0493091697411
 20
8.70203364616701
 30
0
 10
-48.04810985555709
 20
8.701942702205578
 30
0
 10
-48.0469149823806
 20
8.701850558087669
 30
0
  0
SPLINE
  5
E4
100
AcDbEntity
  8
0
  6
CONTINUOUS
 62
    7
370
   25
100
AcDbSpline
210
0
220
0
230
0
 70
    8
 71
    3
 72
   23
 73
   19
 74
    0
 42
1e-007
 43
1e-007
 40
0
 40
0
 40
0
 40
0
 40
1.67518565171e-005
 40
1.67518565171e-005
 40
1.67518565171e-005
 40
3.35023407611e-005
 40
3.35023407611e-005
 40
3.35023407611e-005
 40
5.02746163219e-005
 40
5.02746163219e-005
 40
5.02746163219e-005
 40
6.70942343861e-005
 40
6.70942343861e-005
 40
6.70942343861e-005
 40
7.46425581514e-005
 40
7.46425581514e-005
 40
7.46425581514e-005
 40
7.825015781370001e-005
 40
7.825015781370001e-005
 40
7.825015781370001e-005
 40
7.825015781370001e-005
 10
-56.9742509633322
 20
5.54536249414781
 30
0
 10
-56.97472544763483
 20
5.545195480484954
 30
0
 10
-56.97616534997012
 20
5.545099440462597
 30
0
 10
-56.97845047903549
 20
5.54508236451232
 30
0
 10
-56.98073550388403
 20
5.545065289340818
 30
0
 10
-56.98392840233573
 20
5.545126692340664
 30
0
 10
-56.98776361801209
 20
5.545261579984921
 30
0
 10
-56.99160388718448
 20
5.545396645364729
 30
0
 10
-56.99619350886081
 20
5.54560909457819
 30
0
 10
-57.00115293883038
 20
5.545881556737985
 30
0
 10
-57.00612622184501
 20
5.546154779959152
 30
0
 10
-57.01160798414738
 20
5.546495864375662
 30
0
 10
-57.01714606757295
 20
5.546876850296447
 30
0
 10
-57.01965974208052
 20
5.547049775570992
 30
0
 10
-57.02220731795457
 20
5.54723229193896
 30
0
 10
-57.02474494258136
 20
5.547421266451371
 30
0
 10
-57.02594408218636
 20
5.547510565246699
 30
0
 10
-57.0271433963674
 20
5.547601509206378
 30
0
 10
-57.02833826954088
 20
5.547693653323489
 30
0
  0
SPLINE
  5
E5
100
AcDbEntity
  8
0
  6
CONTINUOUS
 62
    7
370
   25
100
AcDbSpline
210
0
220
0
230
0
 70
    8
 71
    3
 72
   23
 73
   19
 74
    0
 42
1e-007
 43
1e-007
 40
0
 40
0
 40
0
 40
0
 40
1.67518565171e-005
 40
1.67518565171e-005
 40
1.67518565171e-005
 40
3.35023407611e-005
 40
3.35023407611e-005
 40
3.35023407611e-005
 40
5.02746163219e-005
 40
5.02746163219e-005
 40
5.02746163219e-005
 40
6.70942343861e-005
 40
6.70942343861e-005
 40
6.70942343861e-005
 40
7.464255815129999e-005
 40
7.464255815129999e-005
 40
7.464255815129999e-005
 40
7.82501578209e-005
 40
7.82501578209e-005
 40
7.82501578209e-005
 40
7.82501578209e-005
 10
-54.11703623752361
 20
11.56139644307304
 30
0
 10
-54.11720325118647
 20
11.56187092737566
 30
0
 10
-54.11729929120885
 20
11.56331082971095
 30
0
 10
-54.11731636715913
 20
11.56559595877632
 30
0
 10
-54.11733344233064
 20
11.56788098362486
 30
0
 10
-54.11727203933067
 20
11.57107388207655
 30
0
 10
-54.11713715168642
 20
11.57490909775291
 30
0
 10
-54.11700208630663
 20
11.5787493669253
 30
0
 10
-54.11678963709333
 20
11.58333898860164
 30
0
 10
-54.11651717493352
 20
11.58829841857121
 30
0
 10
-54.11624395171233
 20
11.59327170158583
 30
0
 10
-54.11590286729601
 20
11.59875346388822
 30
0
 10
-54.11552188137557
 20
11.60429154731382
 30
0
 10
-54.11534895610119
 20
11.60680522182137
 30
0
 10
-54.1151664397328
 20
11.60935279769536
 30
0
 10
-54.11497746522122
 20
11.61189042232217
 30
0
 10
-54.11488816642611
 20
11.61308956192961
 30
0
 10
-54.11479722246496
 20
11.61428887611296
 30
0
 10
-54.1147050783472
 20
11.6154837492888
 30
0
  0
SPLINE
  5
E6
100
AcDbEntity
  8
0
  6
CONTINUOUS
 62
    7
370
   25
100
AcDbSpline
210
0
220
0
230
0
 70
    8
 71
    3
 72
   23
 73
   19
 74
    0
 42
1e-007
 43
1e-007
 40
0
 40
0
 40
0
 40
0
 40
1.63651828928e-005
 40
1.63651828928e-005
 40
1.63651828928e-005
 40
3.27150063169e-005
 40
3.27150063169e-005
 40
3.27150063169e-005
 40
4.93045677903e-005
 40
4.93045677903e-005
 40
4.93045677903e-005
 40
6.64363128328e-005
 40
6.64363128328e-005
 40
6.64363128328e-005
 40
7.75157753647e-005
 40
7.75157753647e-005
 40
7.75157753647e-005
 40
7.95141726012e-005
 40
7.95141726012e-005
 40
7.95141726012e-005
 40
7.95141726012e-005
 10
-56.97385938329685
 20
8.701845476034833
 30
0
 10
-56.9743225320159
 20
8.702008076204006
 30
0
 10
-56.97570940919937
 20
8.701927516276088
 30
0
 10
-56.97789460772845
 20
8.701612967181896
 30
0
 10
-56.98007866172848
 20
8.701298582837303
 30
0
 10
-56.98311720451843
 20
8.700742541015465
 30
0
 10
-56.98674633789838
 20
8.699995074286599
 30
0
 10
-56.99042938594447
 20
8.699236503138327
 30
0
 10
-56.99481622137362
 20
8.698261293772198
 30
0
 10
-56.99954903765595
 20
8.697150444258828
 30
0
 10
-57.00443503992931
 20
8.696003640131245
 30
0
 10
-57.00981823511255
 20
8.694682203385456
 30
0
 10
-57.01527226543983
 20
8.693291649085083
 30
0
 10
-57.01882714687456
 20
8.692385299950637
 30
0
 10
-57.02246114589183
 20
8.691437417373091
 30
0
 10
-57.02605614951328
 20
8.690478884008868
 30
0
 10
-57.0266993431993
 20
8.690307389714947
 30
0
 10
-57.02734202920499
 20
8.69013534819652
 30
0
 10
-57.02798354957424
 20
8.689962982332512
 30
0
  0
SPLINE
  5
E7
100
AcDbEntity
  8
0
  6
CONTINUOUS
 62
    7
370
   25
100
AcDbSpline
210
0
220
0
230
0
 70
    8
 71
    3
 72
   23
 73
   19
 74
    0
 42
1e-007
 43
1e-007
 40
0
 40
0
 40
0
 40
0
 40
1.63651828928e-005
 40
1.63651828928e-005
 40
1.63651828928e-005
 40
3.27150063169e-005
 40
3.27150063169e-005
 40
3.27150063169e-005
 40
4.93045677903e-005
 40
4.93045677903e-005
 40
4.93045677903e-005
 40
6.64363128328e-005
 40
6.64363128328e-005
 40
6.64363128328e-005
 40
7.75157753644e-005
 40
7.75157753644e-005
 40
7.75157753644e-005
 40
7.95141726012e-005
 40
7.95141726012e-005
 40
7.95141726012e-005
 40
7.95141726012e-005
 10
-48.10139386863369
 20
5.547698735377476
 30
0
 10
-48.10093071991464
 20
5.5475361352083
 30
0
 10
-48.09954384273114
 20
5.547616695136125
 30
0
 10
-48.09735864420205
 20
5.547931244230314
 30
0
 10
-48.09517459020202
 20
5.548245628574906
 30
0
 10
-48.09213604741205
 20
5.54880167039668
 30
0
 10
-48.0885069140321
 20
5.549549137125536
 30
0
 10
-48.08482386598601
 20
5.550307708273798
 30
0
 10
-48.08043703055689
 20
5.55128291764001
 30
0
 10
-48.07570421427456
 20
5.552393767153381
 30
0
 10
-48.07081821200121
 20
5.553540571280967
 30
0
 10
-48.06543501681796
 20
5.554862008026769
 30
0
 10
-48.05998098649069
 20
5.556252562327121
 30
0
 10
-48.05642610505603
 20
5.557158911461533
 30
0
 10
-48.05279210603905
 20
5.558106794039824
 30
0
 10
-48.04919710241726
 20
5.559065327402442
 30
0
 10
-48.0485539087311
 20
5.559236821696098
 30
0
 10
-48.04791122272558
 20
5.559408863215435
 30
0
 10
-48.04726970235635
 20
5.559581229079768
 30
0
  0
SPLINE
  5
E8
100
AcDbEntity
  8
0
  6
CONTINUOUS
 62
    7
370
   25
100
AcDbSpline
210
0
220
0
230
0
 70
    8
 71
    3
 72
   23
 73
   19
 74
    0
 42
1e-007
 43
1e-007
 40
0
 40
0
 40
0
 40
0
 40
1.63651828928e-005
 40
1.63651828928e-005
 40
1.63651828928e-005
 40
3.27150063169e-005
 40
3.27150063169e-005
 40
3.27150063169e-005
 40
4.93045677903e-005
 40
4.93045677903e-005
 40
4.93045677903e-005
 40
6.64363128328e-005
 40
6.64363128328e-005
 40
6.64363128328e-005
 40
7.75157753644e-005
 40
7.75157753644e-005
 40
7.75157753644e-005
 40
7.951417260100001e-005
 40
7.951417260100001e-005
 40
7.951417260100001e-005
 40
7.951417260100001e-005
 10
-50.9605532556366
 20
11.5610048630377
 30
0
 10
-50.96039065546743
 20
11.56146801175674
 30
0
 10
-50.96047121539532
 20
11.56285488894024
 30
0
 10
-50.96078576448951
 20
11.56504008746932
 30
0
 10
-50.9611001488341
 20
11.56722414146935
 30
0
 10
-50.96165619065591
 20
11.57026268425932
 30
0
 10
-50.96240365738477
 20
11.57389181763927
 30
0
 10
-50.96316222853304
 20
11.57757486568535
 30
0
 10
-50.9641374378992
 20
11.58196170111449
 30
0
 10
-50.96524828741256
 20
11.58669451739682
 30
0
 10
-50.96639509154014
 20
11.59158051967017
 30
0
 10
-50.96771652828597
 20
11.5969637148534
 30
0
 10
-50.96910708258636
 20
11.60241774518067
 30
0
 10
-50.97001343172081
 20
11.60597262661533
 30
0
 10
-50.97096131429864
 20
11.60960662563245
 30
0
 10
-50.9719198476621
 20
11.61320162925403
 30
0
 10
-50.97209134195588
 20
11.6138448229401
 30
0
 10
-50.97226338347476
 20
11.61448750894567
 30
0
 10
-50.97243574933893
 20
11.61512902931488
 30
0
  0
SPLINE
  5
E9
100
AcDbEntity
  8
0
  6
CONTINUOUS
 62
    7
370
   25
100
AcDbSpline
210
0
220
0
230
0
 70
    8
 71
    3
 72
   23
 73
   19
 74
    0
 42
1e-007
 43
1e-007
 40
0
 40
0
 40
0
 40
0
 40
1.63651828928e-005
 40
1.63651828928e-005
 40
1.63651828928e-005
 40
3.27150063169e-005
 40
3.27150063169e-005
 40
3.27150063169e-005
 40
4.93045677903e-005
 40
4.93045677903e-005
 40
4.93045677903e-005
 40
6.64363128328e-005
 40
6.64363128328e-005
 40
6.64363128328e-005
 40
7.75157753645e-005
 40
7.75157753645e-005
 40
7.75157753645e-005
 40
7.95141726012e-005
 40
7.95141726012e-005
 40
7.95141726012e-005
 40
7.95141726012e-005
 10
-54.11469999629389
 20
2.688539348374526
 30
0
 10
-54.11486259646307
 20
2.688076199655484
 30
0
 10
-54.11478203653521
 20
2.686689322471985
 30
0
 10
-54.11446748744103
 20
2.684504123942903
 30
0
 10
-54.11415310309643
 20
2.682320069942874
 30
0
 10
-54.11359706127467
 20
2.679281527152899
 30
0
 10
-54.11284959454581
 20
2.675652393772946
 30
0
 10
-54.11209102339754
 20
2.671969345726861
 30
0
 10
-54.11111581403136
 20
2.667582510297724
 30
0
 10
-54.11000496451801
 20
2.662849694015389
 30
0
 10
-54.10885816039043
 20
2.657963691742039
 30
0
 10
-54.10753672364461
 20
2.652580496558805
 30
0
 10
-54.10614616934425
 20
2.647126466231526
 30
0
 10
-54.10523982020982
 20
2.643571584796841
 30
0
 10
-54.10429193763191
 20
2.639937585779715
 30
0
 10
-54.10333340426839
 20
2.636342582158123
 30
0
 10
-54.10316190997459
 20
2.635699388472045
 30
0
 10
-54.10298986845574
 20
2.635056702466443
 30
0
 10
-54.10281750259158
 20
2.634415182097205
 30
0
  0
SPLINE
  5
EA
100
AcDbEntity
  8
0
  6
CONTINUOUS
 62
    7
370
   25
100
AcDbSpline
210
0
220
0
230
0
 70
    8
 71
    3
 72
    8
 73
    4
 74
    0
 42
1e-007
 43
1e-007
 40
0
 40
0
 40
0
 40
0
 40
1
 40
1
 40
1
 40
1
 10
-48.10139339708928
 20
5.547698567564446
 30
0
 10
-48.09781207506607
 20
6.599567289902743
 30
0
 10
-48.09768452911516
 20
7.652312973767729
 30
0
 10
-48.10100217122877
 20
8.70418069700596
 30
0
  0
SPLINE
  5
EB
100
AcDbEntity
  8
0
  6
CONTINUOUS
 62
    7
370
   25
100
AcDbSpline
210
0
220
0
230
0
 70
    8
 71
    3
 72
    8
 73
    4
 74
    0
 42
1e-007
 43
1e-007
 40
0
 40
0
 40
0
 40
0
 40
1
 40
1
 40
1
 40
1
 10
-56.97385985484123
 20
8.701845643847808
 30
0
 10
-56.97744117680755
 20
7.649976921489261
 30
0
 10
-56.97756872278075
 20
6.59723123765689
 30
0
 10
-56.97425108070176
 20
5.545363514406294
 30
0
  0
SPLINE
  5
EC
100
AcDbEntity
  8
0
  6
CONTINUOUS
 62
    7
370
   25
100
AcDbSpline
210
0
220
0
230
0
 70
    8
 71
    3
 72
    8
 73
    4
 74
    0
 42
1e-007
 43
1e-007
 40
0
 40
0
 40
0
 40
0
 40
1
 40
1
 40
1
 40
1
 10
-50.96055308782361
 20
11.56100533458209
 30
0
 10
-52.0124218101655
 20
11.5645866565952
 30
0
 10
-53.06516749402855
 20
11.56471420256096
 30
0
 10
-54.11703521726512
 20
11.56139656044259
 30
0
  0
SPLINE
  5
ED
100
AcDbEntity
  8
0
  6
CONTINUOUS
 62
    7
370
   25
100
AcDbSpline
210
0
220
0
230
0
 70
    8
 71
    3
 72
    8
 73
    4
 74
    0
 42
1e-007
 43
1e-007
 40
0
 40
0
 40
0
 40
0
 40
1
 40
1
 40
1
 40
1
 10
-54.11470016410691
 20
2.688538876830128
 30
0
 10
-53.06283144176505
 20
2.68495755481695
 30
0
 10
-52.01008575790543
 20
2.68483000886097
 30
0
 10
-50.95821803466541
 20
2.688147650969629
 30
0
  0
CIRCLE
  5
EE
100
AcDbEntity
  8
0
  6
CONTINUOUS
 62
    7
370
   25
100
AcDbCircle
 10
-52.537626626
 20
7.1247721057
 40
1.998726199606743
  0
LINE
  5
EF
100
AcDbEntity
  8
0
  6
CONTINUOUS
 62
    7
370
   25
100
AcDbLine
 10
-50.768154858
 20
2.5744119986
 11
-50.7698099743
 21
2.5786682833
  0
LINE
  5
F0
100
AcDbEntity
  8
0
  6
CONTINUOUS
 62
    7
370
   25
100
AcDbLine
 10
-57.0879867331
 20
5.3553003377
 11
-57.0837304484
 21
5.356955454
  0
LINE
  5
F1
100
AcDbEntity
  8
0
  6
CONTINUOUS
 62
    7
370
   25
100
AcDbLine
 10
-47.9872665188
 20
8.894243873700001
 11
-47.9915228035
 21
8.8925887574
  0
LINE
  5
F2
100
AcDbEntity
  8
0
  6
CONTINUOUS
 62
    7
370
   25
100
AcDbLine
 10
-54.3070983939
 20
11.6751322128
 11
-54.3054432777
 21
11.6708759281
  0
LINE
  5
F3
100
AcDbEntity
  8
0
  6
CONTINUOUS
 62
    7
370
   25
100
AcDbLine
 10
-56.9738637928
 20
8.7018531936
 11
-56.969613194
 21
8.700342106900001
  0
LINE
  5
F4
100
AcDbEntity
  8
0
  6
CONTINUOUS
 62
    7
370
   25
100
AcDbLine
 10
-57.346843121
 20
8.918466304200001
 11
-57.3426163553
 21
8.9168898467
  0
LINE
  5
F5
100
AcDbEntity
  8
0
  6
CONTINUOUS
 62
    7
370
   25
100
AcDbLine
 10
-48.1013894592
 20
5.5476910178
 11
-48.1056400579
 21
5.5492021045
  0
LINE
  5
F6
100
AcDbEntity
  8
0
  6
CONTINUOUS
 62
    7
370
   25
100
AcDbLine
 10
-47.7284101309
 20
5.3310779072
 11
-47.7326368966
 21
5.3326543647
  0
LINE
  5
F7
100
AcDbEntity
  8
0
  6
CONTINUOUS
 62
    7
370
   25
100
AcDbLine
 10
-54.1147077138
 20
2.6885349389
 11
-54.1131966272
 21
2.6927855376
  0
LINE
  5
F8
100
AcDbEntity
  8
0
  6
CONTINUOUS
 62
    7
370
   25
100
AcDbLine
 10
-54.3313208244
 20
2.3155556107
 11
-54.329744367
 21
2.3197823763
  0
LINE
  5
F9
100
AcDbEntity
  8
0
  6
CONTINUOUS
 62
    7
370
   25
100
AcDbLine
 10
-50.9605455381
 20
11.5610092725
 11
-50.9620566248
 21
11.5567586738
  0
LINE
  5
FA
100
AcDbEntity
  8
0
  6
CONTINUOUS
 62
    7
370
   25
100
AcDbLine
 10
-50.7439324275
 20
11.9339886007
 11
-50.7455088849
 21
11.9297618351
  0
LINE
  5
FB
100
AcDbEntity
  8
0
  6
CONTINUOUS
 62
    7
370
   25
100
AcDbLine
 10
-50.9582181159
 20
2.6881478791
 11
-50.9597309812
 21
2.6923975807
  0
LINE
  5
FC
100
AcDbEntity
  8
0
  6
CONTINUOUS
 62
    7
370
   25
100
AcDbLine
 10
-50.7416917708
 20
2.3151194127
 11
-50.7432698311
 21
2.3193455805
  0
LINE
  5
FD
100
AcDbEntity
  8
0
  6
CONTINUOUS
 62
    7
370
   25
100
AcDbLine
 10
-56.9742508526
 20
5.5453635956
 11
-56.970001151
 21
5.5468764609
  0
LINE
  5
FE
100
AcDbEntity
  8
0
  6
CONTINUOUS
 62
    7
370
   25
100
AcDbLine
 10
-57.347279319
 20
5.3288372505
 11
-57.3430531512
 21
5.3304153108
  0
LINE
  5
FF
100
AcDbEntity
  8
0
  6
CONTINUOUS
 62
    7
370
   25
100
AcDbLine
 10
-48.1010023993
 20
8.7041806158
 11
-48.1052521009
 21
8.7026677505
  0
LINE
  5
100
100
AcDbEntity
  8
0
  6
CONTINUOUS
 62
    7
370
   25
100
AcDbLine
 10
-47.7279739329
 20
8.9207069609
 11
-47.7322001007
 21
8.919128900600001
  0
LINE
  5
101
100
AcDbEntity
  8
0
  6
CONTINUOUS
 62
    7
370
   25
100
AcDbLine
 10
-54.1170351361
 20
11.5613963323
 11
-54.1155222708
 21
11.5571466307
  0
LINE
  5
102
100
AcDbEntity
  8
0
  6
CONTINUOUS
 62
    7
370
   25
100
AcDbLine
 10
-54.3335614811
 20
11.9344247987
 11
-54.3319834208
 21
11.930198631
  0
LINE
  5
103
100
AcDbEntity
  8
0
  6
CONTINUOUS
 62
    7
370
   25
100
AcDbLine
 10
-44.1635894567
 20
3.289848874
 11
-48.6869861313
 21
3.289848874
  0
LINE
  5
104
100
AcDbEntity
  8
0
  6
CONTINUOUS
 62
    7
370
   25
100
AcDbLine
 10
-42.9135894567
 20
9.709695337399999
 11
-42.9135894567
 21
4.539848874
  0
LINE
  5
105
100
AcDbEntity
  8
0
  6
CONTINUOUS
 62
    7
370
   25
100
AcDbLine
 10
-48.6869861313
 20
10.9596953374
 11
-44.1635894567
 21
10.9596953374
  0
LINE
  5
106
100
AcDbEntity
  8
0
  6
CONTINUOUS
 62
    7
370
   25
100
AcDbLine
 10
-48.8369861313
 20
15.4997721057
 11
-48.8369861313
 21
11.1096953374
  0
LINE
  5
107
100
AcDbEntity
  8
0
  6
CONTINUOUS
 62
    7
370
   25
100
AcDbLine
 10
-54.9901927821
 20
16.7497721057
 11
-50.0869861313
 21
16.7497721057
  0
LINE
  5
108
100
AcDbEntity
  8
0
  6
CONTINUOUS
 62
    7
370
   25
100
AcDbLine
 10
-56.2401927821
 20
11.1096953374
 11
-56.2401927821
 21
15.4997721057
  0
LINE
  5
109
100
AcDbEntity
  8
0
  6
CONTINUOUS
 62
    7
370
   25
100
AcDbLine
 10
-60.9135894567
 20
10.9596953374
 11
-56.3901927821
 21
10.9596953374
  0
LINE
  5
10A
100
AcDbEntity
  8
0
  6
CONTINUOUS
 62
    7
370
   25
100
AcDbLine
 10
-62.1635894567
 20
4.539848874
 11
-62.1635894567
 21
9.709695337399999
  0
LINE
  5
10B
100
AcDbEntity
  8
0
  6
CONTINUOUS
 62
    7
370
   25
100
AcDbLine
 10
-56.3901927821
 20
3.289848874
 11
-60.9135894567
 21
3.289848874
  0
LINE
  5
10C
100
AcDbEntity
  8
0
  6
CONTINUOUS
 62
    7
370
   25
100
AcDbLine
 10
-56.2401927821
 20
-1.2502278943
 11
-56.2401927821
 21
3.139848874
  0
LINE
  5
10D
100
AcDbEntity
  8
0
  6
CONTINUOUS
 62
    7
370
   25
100
AcDbLine
 10
-50.0869861313
 20
-2.5002278943
 11
-54.9901927821
 21
-2.5002278943
  0
LINE
  5
10E
100
AcDbEntity
  8
0
  6
CONTINUOUS
 62
    7
370
   25
100
AcDbLine
 10
-48.8369861313
 20
3.139848874
 11
-48.8369861313
 21
-1.2502278943
  0
LINE
  5
10F
100
AcDbEntity
  8
0
  6
CONTINUOUS
 62
    7
370
   25
100
AcDbLine
 10
-54.9901927821
 20
-2.2502278943
 11
-54.9901927821
 21
-2.5002278943
  0
LINE
  5
110
100
AcDbEntity
  8
0
  6
CONTINUOUS
 62
    7
370
   25
100
AcDbLine
 10
-55.9901927821
 20
-1.2502278943
 11
-56.2401927821
 21
-1.2502278943
  0
LINE
  5
111
100
AcDbEntity
  8
0
  6
CONTINUOUS
 62
    7
370
   25
100
AcDbLine
 10
-44.1635894567
 20
3.289848874
 11
-44.1635894567
 21
3.539848874
  0
LINE
  5
112
100
AcDbEntity
  8
0
  6
CONTINUOUS
 62
    7
370
   25
100
AcDbLine
 10
-42.9135894567
 20
4.539848874
 11
-43.1635894567
 21
4.539848874
  0
LINE
  5
113
100
AcDbEntity
  8
0
  6
CONTINUOUS
 62
    7
370
   25
100
AcDbLine
 10
-55.9901927821
 20
3.139848874
 11
-56.2401927821
 21
3.139848874
  0
LINE
  5
114
100
AcDbEntity
  8
0
  6
CONTINUOUS
 62
    7
370
   25
100
AcDbLine
 10
-56.3901927821
 20
3.539848874
 11
-56.3901927821
 21
3.289848874
  0
LINE
  5
115
100
AcDbEntity
  8
0
  6
CONTINUOUS
 62
    7
370
   25
100
AcDbLine
 10
-55.9901927821
 20
3.139848874
 11
-55.9901927821
 21
-1.2502278943
  0
LINE
  5
116
100
AcDbEntity
  8
0
  6
CONTINUOUS
 62
    7
370
   25
100
AcDbLine
 10
-56.3901927821
 20
10.7096953374
 11
-60.9135894567
 21
10.7096953374
  0
LINE
  5
117
100
AcDbEntity
  8
0
  6
CONTINUOUS
 62
    7
370
   25
100
AcDbLine
 10
-60.9135894567
 20
10.7096953374
 11
-60.9135894567
 21
10.9596953374
  0
LINE
  5
118
100
AcDbEntity
  8
0
  6
CONTINUOUS
 62
    7
370
   25
100
AcDbLine
 10
-56.3901927821
 20
10.7096953374
 11
-56.3901927821
 21
10.9596953374
  0
LINE
  5
119
100
AcDbEntity
  8
0
  6
CONTINUOUS
 62
    7
370
   25
100
AcDbLine
 10
-48.8369861313
 20
11.1096953374
 11
-49.0869861313
 21
11.1096953374
  0
LINE
  5
11A
100
AcDbEntity
  8
0
  6
CONTINUOUS
 62
    7
370
   25
100
AcDbLine
 10
-49.0869861313
 20
11.1096953374
 11
-49.0869861313
 21
15.4997721057
  0
LINE
  5
11B
100
AcDbEntity
  8
0
  6
CONTINUOUS
 62
    7
370
   25
100
AcDbLine
 10
-48.8369861313
 20
15.4997721057
 11
-49.0869861313
 21
15.4997721057
  0
LINE
  5
11C
100
AcDbEntity
  8
0
  6
CONTINUOUS
 62
    7
370
   25
100
AcDbLine
 10
-61.9135894567
 20
9.709695337399999
 11
-61.9135894567
 21
4.539848874
  0
LINE
  5
11D
100
AcDbEntity
  8
0
  6
CONTINUOUS
 62
    7
370
   25
100
AcDbLine
 10
-61.9135894567
 20
4.539848874
 11
-62.1635894567
 21
4.539848874
  0
LINE
  5
11E
100
AcDbEntity
  8
0
  6
CONTINUOUS
 62
    7
370
   25
100
AcDbLine
 10
-61.9135894567
 20
9.709695337399999
 11
-62.1635894567
 21
9.709695337399999
  0
LINE
  5
11F
100
AcDbEntity
  8
0
  6
CONTINUOUS
 62
    7
370
   25
100
AcDbLine
 10
-44.1635894567
 20
10.9596953374
 11
-44.1635894567
 21
10.7096953374
  0
LINE
  5
120
100
AcDbEntity
  8
0
  6
CONTINUOUS
 62
    7
370
   25
100
AcDbLine
 10
-44.1635894567
 20
10.7096953374
 11
-48.6869861313
 21
10.7096953374
  0
LINE
  5
121
100
AcDbEntity
  8
0
  6
CONTINUOUS
 62
    7
370
   25
100
AcDbLine
 10
-48.6869861313
 20
10.9596953374
 11
-48.6869861313
 21
10.7096953374
  0
LINE
  5
122
100
AcDbEntity
  8
0
  6
CONTINUOUS
 62
    7
370
   25
100
AcDbLine
 10
-48.8369861313
 20
3.139848874
 11
-49.0869861313
 21
3.139848874
  0
LINE
  5
123
100
AcDbEntity
  8
0
  6
CONTINUOUS
 62
    7
370
   25
100
AcDbLine
 10
-48.6869861313
 20
3.289848874
 11
-48.6869861313
 21
3.539848874
  0
LINE
  5
124
100
AcDbEntity
  8
0
  6
CONTINUOUS
 62
    7
370
   25
100
AcDbLine
 10
-55.9901927821
 20
15.4997721057
 11
-55.9901927821
 21
11.1096953374
  0
LINE
  5
125
100
AcDbEntity
  8
0
  6
CONTINUOUS
 62
    7
370
   25
100
AcDbLine
 10
-55.9901927821
 20
11.1096953374
 11
-56.2401927821
 21
11.1096953374
  0
LINE
  5
126
100
AcDbEntity
  8
0
  6
CONTINUOUS
 62
    7
370
   25
100
AcDbLine
 10
-55.9901927821
 20
15.4997721057
 11
-56.2401927821
 21
15.4997721057
  0
LINE
  5
127
100
AcDbEntity
  8
0
  6
CONTINUOUS
 62
    7
370
   25
100
AcDbLine
 10
-48.6869861313
 20
3.539848874
 11
-44.1635894567
 21
3.539848874
  0
LINE
  5
128
100
AcDbEntity
  8
0
  6
CONTINUOUS
 62
    7
370
   25
100
AcDbLine
 10
-54.9901927821
 20
-2.2502278943
 11
-50.0869861313
 21
-2.2502278943
  0
LINE
  5
129
100
AcDbEntity
  8
0
  6
CONTINUOUS
 62
    7
370
   25
100
AcDbLine
 10
-50.0869861313
 20
-2.2502278943
 11
-50.0869861313
 21
-2.5002278943
  0
LINE
  5
12A
100
AcDbEntity
  8
0
  6
CONTINUOUS
 62
    7
370
   25
100
AcDbLine
 10
-48.8369861313
 20
-1.2502278943
 11
-49.0869861313
 21
-1.2502278943
  0
LINE
  5
12B
100
AcDbEntity
  8
0
  6
CONTINUOUS
 62
    7
370
   25
100
AcDbLine
 10
-60.9135894567
 20
3.539848874
 11
-60.9135894567
 21
3.289848874
  0
LINE
  5
12C
100
AcDbEntity
  8
0
  6
CONTINUOUS
 62
    7
370
   25
100
AcDbLine
 10
-54.9901927821
 20
16.7497721057
 11
-54.9901927821
 21
16.4997721057
  0
LINE
  5
12D
100
AcDbEntity
  8
0
  6
CONTINUOUS
 62
    7
370
   25
100
AcDbLine
 10
-43.1635894567
 20
4.539848874
 11
-43.1635894567
 21
9.709695337399999
  0
LINE
  5
12E
100
AcDbEntity
  8
0
  6
CONTINUOUS
 62
    7
370
   25
100
AcDbLine
 10
-42.9135894567
 20
9.709695337399999
 11
-43.1635894567
 21
9.709695337399999
  0
LINE
  5
12F
100
AcDbEntity
  8
0
  6
CONTINUOUS
 62
    7
370
   25
100
AcDbLine
 10
-50.0869861313
 20
16.7497721057
 11
-50.0869861313
 21
16.4997721057
  0
LINE
  5
130
100
AcDbEntity
  8
0
  6
CONTINUOUS
 62
    7
370
   25
100
AcDbLine
 10
-50.0869861313
 20
16.4997721057
 11
-54.9901927821
 21
16.4997721057
  0
LINE
  5
131
100
AcDbEntity
  8
0
  6
CONTINUOUS
 62
    7
370
   25
100
AcDbLine
 10
-60.9135894567
 20
3.539848874
 11
-56.3901927821
 21
3.539848874
  0
LINE
  5
132
100
AcDbEntity
  8
0
  6
CONTINUOUS
 62
    7
370
   25
100
AcDbLine
 10
-49.0869861313
 20
-1.2502278943
 11
-49.0869861313
 21
3.139848874
  0
ARC
  5
133
100
AcDbEntity
  8
0
  6
CONTINUOUS
 62
    7
370
   25
100
AcDbCircle
 10
-61.7380381541
 20
15.4579081231
 40
6.941047614040169
100
AcDbArc
 50
358.5765376122
 51
3.9632509885
  0
ARC
  5
134
100
AcDbEntity
  8
0
  6
CONTINUOUS
 62
    7
370
   25
100
AcDbCircle
 10
-43.333648006
 20
15.4579064988
 40
6.946527354457247
100
AcDbArc
 50
176.0398669666
 51
181.4223518267
  0
ARC
  5
135
100
AcDbEntity
  8
0
  6
CONTINUOUS
 62
    7
370
   25
100
AcDbCircle
 10
-61.7380381541
 20
-1.2083639117
 40
6.941047614034858
100
AcDbArc
 50
356.0367490115
 51
1.4234623878
  0
ARC
  5
136
100
AcDbEntity
  8
0
  6
CONTINUOUS
 62
    7
370
   25
100
AcDbCircle
 10
-43.333648006
 20
-1.2083622874
 40
6.946527354459757
100
AcDbArc
 50
178.5776481733
 51
183.9601330334
  0
ARC
  5
137
100
AcDbEntity
  8
0
  6
CONTINUOUS
 62
    7
370
   25
100
AcDbCircle
 10
-44.2611600695
 20
16.267121641
 40
6.875832773285794
100
AcDbArc
 50
268.5631871781
 51
274.0007379143
  0
ARC
  5
138
100
AcDbEntity
  8
0
  6
CONTINUOUS
 62
    7
370
   25
100
AcDbCircle
 10
-44.2611715886
 20
-2.0422140576
 40
6.91385839533584
100
AcDbArc
 50
86.0212056414
 51
91.42899833129999
  0
ARC
  5
139
100
AcDbEntity
  8
0
  6
CONTINUOUS
 62
    7
370
   25
100
AcDbCircle
 10
-60.7843334081
 20
16.2873839628
 40
6.919848970743792
100
AcDbArc
 50
266.0246407444
 51
271.4277749292
  0
ARC
  5
13A
100
AcDbEntity
  8
0
  6
CONTINUOUS
 62
    7
370
   25
100
AcDbCircle
 10
-60.7843422984
 20
-2.0186662925
 40
6.890367084974455
100
AcDbArc
 50
88.5661840729
 51
93.99232208479999
  0
ARC
  5
13B
100
AcDbEntity
  8
0
  6
CONTINUOUS
 62
    7
370
   25
100
AcDbCircle
 10
-54.8135894567
 20
15.3376499469
 40
0.5999999999999943
100
AcDbArc
 50
90
 51
180
  0
ARC
  5
13C
100
AcDbEntity
  8
0
  6
CONTINUOUS
 62
    7
370
   25
100
AcDbCircle
 10
-54.9541188538
 20
17.1047316474
 40
1.825839798827474
100
AcDbArc
 50
255.4248920932
 51
274.8694088901
  0
ARC
  5
13D
100
AcDbEntity
  8
0
  6
CONTINUOUS
 62
    7
370
   25
100
AcDbCircle
 10
-54.9541188538
 20
-2.855187436
 40
1.825839798827562
100
AcDbArc
 50
85.1305911099
 51
104.5751079068
  0
ARC
  5
13E
100
AcDbEntity
  8
0
  6
CONTINUOUS
 62
    7
370
   25
100
AcDbCircle
 10
-54.8135894567
 20
-1.0881057355
 40
0.6000000000000114
100
AcDbArc
 50
180
 51
270
  0
ARC
  5
13F
100
AcDbEntity
  8
0
  6
CONTINUOUS
 62
    7
370
   25
100
AcDbCircle
 10
-50.2635894567
 20
15.3376499469
 40
0.6000000000000156
100
AcDbArc
 50
0
 51
90
  0
ARC
  5
140
100
AcDbEntity
  8
0
  6
CONTINUOUS
 62
    7
370
   25
100
AcDbCircle
 10
-50.1230536895
 20
17.1045806367
 40
1.825692045130333
100
AcDbArc
 50
265.1303532557
 51
284.576107035
  0
ARC
  5
141
100
AcDbEntity
  8
0
  6
CONTINUOUS
 62
    7
370
   25
100
AcDbCircle
 10
-50.1230536895
 20
-2.8550364253
 40
1.825692045130131
100
AcDbArc
 50
75.42389296499999
 51
94.8696467443
  0
ARC
  5
142
100
AcDbEntity
  8
0
  6
CONTINUOUS
 62
    7
370
   25
100
AcDbCircle
 10
-50.2635894567
 20
-1.0881057355
 40
0.6000000000000085
100
AcDbArc
 50
270
 51
0
  0
ARC
  5
143
100
AcDbEntity
  8
0
  6
CONTINUOUS
 62
    7
370
   25
100
AcDbCircle
 10
-54.9460125641
 20
12.7719662943
 40
2.139500225236156
100
AcDbArc
 50
257.3764168404
 51
274.3313859232
  0
ARC
  5
144
100
AcDbEntity
  8
0
  6
CONTINUOUS
 62
    7
370
   25
100
AcDbCircle
 10
-54.94604523
 20
1.4692338895
 40
2.13750713304539
100
AcDbArc
 50
85.6653093905
 51
102.6346510377
  0
ARC
  5
145
100
AcDbEntity
  8
0
  6
CONTINUOUS
 62
    7
370
   25
100
AcDbCircle
 10
-50.1310087277
 20
12.8095608904
 40
2.12996280634284
100
AcDbArc
 50
265.6527720077
 51
282.6767014955
  0
ARC
  5
146
100
AcDbEntity
  8
0
  6
CONTINUOUS
 62
    7
370
   25
100
AcDbCircle
 10
-50.131124189
 20
1.4698237649
 40
2.136929468330272
100
AcDbArc
 50
77.3621379081
 51
94.3356490059
  0
ARC
  5
147
100
AcDbEntity
  8
0
  6
CONTINUOUS
 62
    7
370
   25
100
AcDbCircle
 10
-44.3814378828
 20
9.4080442286
 40
0.6000000000000156
100
AcDbArc
 50
0
 51
89.70669223980001
  0
ARC
  5
148
100
AcDbEntity
  8
0
  6
CONTINUOUS
 62
    7
370
   25
100
AcDbCircle
 10
-42.6082296532
 20
9.5392719971
 40
1.83115375703793
100
AcDbArc
 50
165.1675078735
 51
184.567502326
  0
ARC
  5
149
100
AcDbEntity
  8
0
  6
CONTINUOUS
 62
    7
370
   25
100
AcDbCircle
 10
-44.3814378828
 20
4.854980552
 40
0.6000000000000014
100
AcDbArc
 50
270
 51
0
  0
ARC
  5
14A
100
AcDbEntity
  8
0
  6
CONTINUOUS
 62
    7
370
   25
100
AcDbCircle
 10
-42.6136017525
 20
4.7144829078
 40
1.826577947539202
100
AcDbArc
 50
175.1317804114
 51
194.5701166471
  0
ARC
  5
14B
100
AcDbEntity
  8
0
  6
CONTINUOUS
 62
    7
370
   25
100
AcDbCircle
 10
-46.8658352904
 20
9.552935657300001
 40
2.155149601911233
100
AcDbArc
 50
167.169416859
 51
184.0122408448
  0
ARC
  5
14C
100
AcDbEntity
  8
0
  6
CONTINUOUS
 62
    7
370
   25
100
AcDbCircle
 10
-46.8805567348
 20
4.7224809964
 40
2.134849406011098
100
AcDbArc
 50
175.6608978062
 51
192.649436469
  0
ARC
  5
14D
100
AcDbEntity
  8
0
  6
CONTINUOUS
 62
    7
370
   25
100
AcDbCircle
 10
-62.4325638433
 20
4.7145105392
 40
1.827222519295718
100
AcDbArc
 50
345.434241582
 51
4.8671796699
  0
ARC
  5
14E
100
AcDbEntity
  8
0
  6
CONTINUOUS
 62
    7
370
   25
100
AcDbCircle
 10
-60.664068911
 20
4.854980552
 40
0.6000000000000085
100
AcDbArc
 50
180
 51
270
  0
ARC
  5
14F
100
AcDbEntity
  8
0
  6
CONTINUOUS
 62
    7
370
   25
100
AcDbCircle
 10
-60.664068911
 20
9.3841844419
 40
0.5999999999999943
100
AcDbArc
 50
90
 51
180
  0
ARC
  5
150
100
AcDbEntity
  8
0
  6
CONTINUOUS
 62
    7
370
   25
100
AcDbCircle
 10
-62.4317380783
 20
9.5246891031
 40
1.826414589146756
100
AcDbArc
 50
355.1315170622
 51
14.5712212258
  0
ARC
  5
151
100
AcDbEntity
  8
0
  6
CONTINUOUS
 62
    7
370
   25
100
AcDbCircle
 10
-58.1962490214
 20
4.7224749566
 40
2.134483984647408
100
AcDbArc
 50
347.3485282299
 51
4.3397091954
  0
ARC
  5
152
100
AcDbEntity
  8
0
  6
CONTINUOUS
 62
    7
370
   25
100
AcDbCircle
 10
-58.1930867163
 20
9.5167414172
 40
2.131387302652441
100
AcDbArc
 50
355.6551426959
 51
12.6687427373
  0
ARC
  5
153
100
AcDbEntity
  8
0
  6
CONTINUOUS
 62
    7
370
   25
100
AcDbCircle
 10
-48.6869861313
 20
3.139848874
 40
0.1499999999999915
100
AcDbArc
 50
90
 51
180
  0
ARC
  5
154
100
AcDbEntity
  8
0
  6
CONTINUOUS
 62
    7
370
   25
100
AcDbCircle
 10
-44.1635894567
 20
4.539848874
 40
1.250000000000021
100
AcDbArc
 50
270
 51
0
  0
ARC
  5
155
100
AcDbEntity
  8
0
  6
CONTINUOUS
 62
    7
370
   25
100
AcDbCircle
 10
-44.1635894567
 20
9.709695337399999
 40
1.250000000000021
100
AcDbArc
 50
0
 51
90
  0
ARC
  5
156
100
AcDbEntity
  8
0
  6
CONTINUOUS
 62
    7
370
   25
100
AcDbCircle
 10
-48.6869861313
 20
11.1096953374
 40
0.1500000000000021
100
AcDbArc
 50
180
 51
270
  0
ARC
  5
157
100
AcDbEntity
  8
0
  6
CONTINUOUS
 62
    7
370
   25
100
AcDbCircle
 10
-50.0869861313
 20
15.4997721057
 40
1.25
100
AcDbArc
 50
0
 51
90
  0
ARC
  5
158
100
AcDbEntity
  8
0
  6
CONTINUOUS
 62
    7
370
   25
100
AcDbCircle
 10
-54.9901927821
 20
15.4997721057
 40
1.250000000000009
100
AcDbArc
 50
90
 51
180
  0
ARC
  5
159
100
AcDbEntity
  8
0
  6
CONTINUOUS
 62
    7
370
   25
100
AcDbCircle
 10
-56.3901927821
 20
11.1096953374
 40
0.1499999999999986
100
AcDbArc
 50
270
 51
0
  0
ARC
  5
15A
100
AcDbEntity
  8
0
  6
CONTINUOUS
 62
    7
370
   25
100
AcDbCircle
 10
-60.9135894567
 20
9.709695337399999
 40
1.25
100
AcDbArc
 50
90
 51
180
  0
ARC
  5
15B
100
AcDbEntity
  8
0
  6
CONTINUOUS
 62
    7
370
   25
100
AcDbCircle
 10
-60.9135894567
 20
4.539848874
 40
1.249999999999998
100
AcDbArc
 50
180
 51
270
  0
ARC
  5
15C
100
AcDbEntity
  8
0
  6
CONTINUOUS
 62
    7
370
   25
100
AcDbCircle
 10
-56.3901927821
 20
3.139848874
 40
0.1500000000000199
100
AcDbArc
 50
0
 51
90
  0
ARC
  5
15D
100
AcDbEntity
  8
0
  6
CONTINUOUS
 62
    7
370
   25
100
AcDbCircle
 10
-54.9901927821
 20
-1.2502278943
 40
1.250000000000007
100
AcDbArc
 50
180
 51
270
  0
ARC
  5
15E
100
AcDbEntity
  8
0
  6
CONTINUOUS
 62
    7
370
   25
100
AcDbCircle
 10
-50.0869861313
 20
-1.2502278943
 40
1.25
100
AcDbArc
 50
270
 51
0
  0
ARC
  5
15F
100
AcDbEntity
  8
0
  6
CONTINUOUS
 62
    7
370
   25
100
AcDbCircle
 10
-54.9901927821
 20
-1.2502278943
 40
0.9999999999999944
100
AcDbArc
 50
180
 51
270
  0
ARC
  5
160
100
AcDbEntity
  8
0
  6
CONTINUOUS
 62
    7
370
   25
100
AcDbCircle
 10
-44.1635894567
 20
4.539848874
 40
1.000000000000021
100
AcDbArc
 50
270
 51
0
  0
ARC
  5
161
100
AcDbEntity
  8
0
  6
CONTINUOUS
 62
    7
370
   25
100
AcDbCircle
 10
-56.3901927821
 20
3.139848874
 40
0.3999999999999999
100
AcDbArc
 50
0
 51
90
  0
ARC
  5
162
100
AcDbEntity
  8
0
  6
CONTINUOUS
 62
    7
370
   25
100
AcDbCircle
 10
-48.6869861313
 20
3.139848874
 40
0.4000000000000017
100
AcDbArc
 50
90
 51
180
  0
ARC
  5
163
100
AcDbEntity
  8
0
  6
CONTINUOUS
 62
    7
370
   25
100
AcDbCircle
 10
-50.0869861313
 20
-1.2502278943
 40
1
100
AcDbArc
 50
270
 51
0
  0
ARC
  5
164
100
AcDbEntity
  8
0
  6
CONTINUOUS
 62
    7
370
   25
100
AcDbCircle
 10
-60.9135894567
 20
4.539848874
 40
0.9999999999999951
100
AcDbArc
 50
180
 51
270
  0
ARC
  5
165
100
AcDbEntity
  8
0
  6
CONTINUOUS
 62
    7
370
   25
100
AcDbCircle
 10
-54.9901927821
 20
15.4997721057
 40
1.000000000000007
100
AcDbArc
 50
90
 51
180
  0
ARC
  5
166
100
AcDbEntity
  8
0
  6
CONTINUOUS
 62
    7
370
   25
100
AcDbCircle
 10
-56.3901927821
 20
11.1096953374
 40
0.4000000000000128
100
AcDbArc
 50
270
 51
0
  0
ARC
  5
167
100
AcDbEntity
  8
0
  6
CONTINUOUS
 62
    7
370
   25
100
AcDbCircle
 10
-44.1635894567
 20
9.709695337399999
 40
1.000000000000014
100
AcDbArc
 50
0
 51
90
  0
ARC
  5
168
100
AcDbEntity
  8
0
  6
CONTINUOUS
 62
    7
370
   25
100
AcDbCircle
 10
-48.6869861313
 20
11.1096953374
 40
0.3999999999999986
100
AcDbArc
 50
180
 51
270
  0
ARC
  5
169
100
AcDbEntity
  8
0
  6
CONTINUOUS
 62
    7
370
   25
100
AcDbCircle
 10
-50.0869861313
 20
15.4997721057
 40
1.000000000000007
100
AcDbArc
 50
0
 51
90
  0
ARC
  5
16A
100
AcDbEntity
  8
0
  6
CONTINUOUS
 62
    7
370
   25
100
AcDbCircle
 10
-60.9135894567
 20
9.709695337399999
 40
0.9999999999999947
100
AcDbArc
 50
90
 51
180
  0
ENDSEC
  0
SECTION
  2
OBJECTS
  0
DICTIONARY
  5
C
330
0
100
AcDbDictionary
281
    1
  3
ACAD_GROUP
350
D
  0
DICTIONARY
  5
D
330
C
100
AcDbDictionary
281
    1
  0
ENDSEC
  0
EOF
